Ben Folds Five

Ben Folds Five
Rockin The Suburbs (Bass tab)

From: "Mark Chesser"
Subject: b/ben_folds_five/rockin_the_suburbs.btab
Date: Sat, 18 Aug 2001 00:24:26 +0100

Ben Folds Five - Rockin' the Suburbs (Bass)
Tabbed By Mark Chesser (chesser@cableinet.co.uk)
18/08/01 00:17

Intro/Riff1
G-----------------------------------------------------------------------
D----------------------------------------------------------------------- = X2
A-3---3-3-3-----5---------7-7-7-7-7-------------------------------------
E------------------2-3-4-------------0-1-2------------------------------

--------
--------
---5----
--------


Verse
-------------------------------------
------------------------------------- X2
--3----5----7--------3----5----------
-------------------------------1-----

------------------------------------------------
------------------------------------------------ X2
-3-3---3-3-3-----5----------7-7-7-7-7-----------
--------------------2-3-4--------------0-1-2----

Chorus
-------------------------------
-------------------------------
--5---5-5-----7-----3---3-3----
-------------------------------
} REPEAT
-------------------------------
-------------------------------
--5---5-5-----7----3-3---3-3---
-------------------------------

Verse 2
-----------------------------------------------
----------------------------------------------- X4
-3-3---3-3-3-----5----------7-7-7-7-7----------
--------------------2-3-4--------------0-1-2---

-------10--9--7-----------------------------------------------------------------
-----------------10--7----------------------------------------------------------
-5-----------------------10--8-----------3---3-3-3----3---3-3---5-----------5---
---------------------------------10--8-----------------------------2--3--4------

Chorus x2
-------------------------------
-------------------------------
--5---5-5-----7----X-3---3-3---
-------------------------------
} REPEAT
-------------------------------
-------------------------------
--5---5-5-----7----3-3---3-3---
-------------------------------

Bridge
----------------------------------
------------0-2--3---3--2--3--5---
--3----3-3------------------------
----------------------------------

------------------------------------------
------------0-2--3---3--2---/7--7-7--5----
--3----3-3-------------------------------- X7
------------------------------------------

-------10--9--7-------------------------
-----------------10--7------------------
-5-----------------------10--8----------
---------------------------------10--8--

Verse (Rage Against the Machine style)
---------------------------------------
--------------------------------------- X2
--3----5----7--------3----5------------
-------------------------------1-------

------------------------------------------------
------------------------------------------------ X4
-3-3---3-3-3-----5----------7-7-7-7-7-----------
--------------------2-3-4--------------0-1-2----

Chorus
-------------------------------
-------------------------------
--5---5-5-----7-----3---3-3----
-------------------------------
} REPEAT
-------------------------------
-------------------------------
--5---5-5-----7----3-3---3-3---
-------------------------------

-------------------------------------------------------
--3---x---3-------------------5---x---5----------------
----------------3---3---3-3-----------------3--3---3-3- X3
-------------------------------------------------------


---------------------
---------------------
---5----7(Bass Fuzz)-
---------------------

Outro (Korn) (Bass Fuzz)

---------------------------------------------------------
--5-3-5-3-5-3---5-3-------------------------------3-4-5--
--------------5-----5-4-3-5-3---------3-x-4-x-5-x-------- X3
------------------------------3-x-6-x--------------------

---------------------------------------------
--5-3-5-3-5-3---5-3--------------------------
--------------5-----5-4-3-5-3----------------
------------------------------3--1--3--6\----

Question, Comments, Corrections?

chesser@cableinet.co.uk

OptimusPrime

Submitted by OptimusPrime at Wed 12 Dec, 2001 10:17 pm

Author: ?
Composer: ?
Publisher: ?
Language: English

Reactions

CommonCrawl [Bot]

Follow Muzikum