Belly

Belly
Hot Burrito (Guitar chord)

#
Date: Mon, 3 Jul 1995 23:28:19 -0400 (EDT)
From: Edmond Hum
Subject: TAB: "Hot Burrito #1" by Belly

hot burrito #1

by gram parsons & chris ethridge
performed by belly
from 'gepetto - ep'
transcribed by edmond hum (rlp@interlog.com)



-------------------------------------------------------------



F Fmaj7 F7 D Bb C Dmaj9 Dm Eb Fm6 G Gm
e----1----0-----1---2---1---0---0-----1---6----1---3--3-----
b----1----1-----4---3---2---1---2-----3---8----3---3--3-----
g----2----2-----2---2---2---0---2-----2---8----0---4--3-----
d----3----3-----1---0---2---2---------0---8----0---5--5-----
a----3----3-----3-------1---3-------------6--------5--5-----
e----1----1-----1----------------------------------3--3-----


---start---



Dm A+ Dm7 G
e---1-----1-----1------3------
b---3-----2-----1------0------
g---2-----2-----2------0------
d---0-----0-----0------0------
a----------------------2------
e----------------------3------



e-------------5s10---------------------
b-----------6------6-5-3-1-1-0-8-6-----
g--7---10s6----------------------------
d--------------------------------------
a--------------------------------------
e--------------------------------------


F Fmaj7
you may be sweet and nice
F7 D
but that won't keep you warm at night
Bb
cause i'm the one who showed you how
C
to do the things you're doing now


F Fmaj7
he may feel all your charms
F7 D
he might hold you in his arms
Bb C
but i'm the one who let you in
Bb C - F Dmaj9 Dm Eb
i was right beside you then


Bb Fm6
once upon a time
C Dm
you let me feel you deep inside
G Gm
but nobody knew, nobody saw
C
do you remember the way we cried?


F Fmaj7
i'm your toy, i'm your old boy
F7 D Bb
but i don't want no one but you to love me
C
no, i wouldn't lie
Bb C
you know i'm not that kind of guy



----------------------
F Fmaj7 F7 D Bb C Bb C
F Dmaj9 Dm Eb
----------------------


e--------------------------------------------------------------
b--6---6-8s10-5---6-8s10-4---6-8s10---7s5----------------------
g-----------------------------------------7-5------------------
d---------------------------------------------8---7-----
a--------------------------------------------------------------
e--------------------------------------------------------------


e----------5-6-8-5-6-3-5-1-3-----------------------------6-5---
b--8---8-8-----------------------------------------5-6-8-------
g----------------------------7-5-----------5-7-5-7-------------
d--------------------------------8-7-5-7-8---------------------
a--------------------------------------------------------------
e--------------------------------------------------------------

e--------------------------------5-6---------------------------
b---6-------6-------6--------6-8-------------------------------
g------5-6----5-6-7---6-7-8------------------------------------
d--------------------------------------------------------------
a--------------------------------------------------------------
e--------------------------------------------------------------


Bb Fm6
once upon a time
C Dm
you let me feel you deep inside
G Gm
but nobody knew, nobody saw
C
do you remember the way we cried?


F Fmaj7
i'm your toy, i'm your old toy
F7 D Bb
but i don't want no one but you to love me
C
no, i wouldn't lie
Bb C
you know i'm not that kind of guy

--------------
F Dmaj9 Dm C F
--------------

---end---

OptimusPrime

Submitted by OptimusPrime at Sun 01 Dec, 2002 8:42 am

Author: ?
Composer: ?
Publisher: ?
Language: English

Reactions

CommonCrawl [Bot]

Follow Muzikum