Bauhaus

Bauhaus
Sanity Assassin (Guitar tab)

#
Title: Sanity Assassin

Here is my partial snips of Sanity Assassin...

Any listening to the song would reveal how these notes math up in time for
accurate renditions... Might also reveal the secret hidden parts for the
deluxe edition of this tab. 8-)

-jscsp@camelot.acf-lab.alaska.edu


(A)|----------------------------|--------------------------------|
|----------------------------|--------------------------------|
|-12-12-12-12----12-12-12-12-|--------------------------------|
|-12-12-12-12----12-12-12-12-|--------------------------------|
|-10-10-10-10----10-10-10-10-|-12-12-12-12-12-12-12-12-12-----|
|----------------------------|--------------------------------|


(B)|-------------------------|------------------------|
|-------------------------|------------------------|
|-7-7-5-7-5---7-7-5-7-5---|------------------------|
|-------------------------|-7-7-7--7--7-7--7-7-----|
|-------------------------|------------------------|
|-------------------------|------------------------|


|-------------------------|------------------------|
|-------------------------|------------------------|
|-------------------------|------------------------|
|-------------------------|----------------11--11--|
|-10-10--10-10-10--9-9-9--|-10--10-10--10----------|
|-------------------------|------------------------|

OptimusPrime

Submitted by OptimusPrime at Fri 16 Nov, 2001 9:26 pm

Author: ?
Composer: ?
Publisher: ?
Language: English

Reactions

CommonCrawl [Bot]

Follow Muzikum