Blink 182
F K A Dog Ver 4 (Guitar tab)

Title: F**k A Dog
Artist: Blink 182
Album: Take Off Your Pants And Jacket (Pants Version)
Tabbed by: Harry Ball
E-mail me at: Mark_Tom_and_Travis_Rock@Hotmail.com

I put this as a correction on one of the other versions but it didn't
come up so I made my own vesion. Enjoy!

E---------------------
B---------------------
G---4-0---0---0-----2- (Play through the whole song and
D-0-----0---------0--- improvise when needed) ie.....
A-----------3---3-----
E---------------------

E---------------------
B---------------------
G---0-----2----------- (After The First Break)
D-------0-------------
A-3---3---------------
E---------------------

E---------------------
B---------------------
G---4-0---0---0------- (At The End)
D-0-----0---------0--- ''F**ck You''
A-----------3---3-----
E---------------------

Keep Tabbin' Blink Dudes!
Haz.

Copyrights
Author: ?
Composer: ?
Publisher: ?
More details
Language: English

Reactions

CommonCrawl [Bot]

Follow Muzikum