Blink 182

Blink 182
Anthem Part Two Ver 3 (Guitar tab)

# File created with Instab #


Author/Artist: Blink 182
Title: Anthem Part Two
Album: Take Off Your Pants And Jacket
Transcribed by: Jonathon Halliwell a.k.a baz
Email: jonathon_halliwell@hotmail.com


INTRO:
E|------------------------------------|-------------------------|
B|-8---8---6---6---5---5---6---6------|-------------------------|
G|---7---7---7---7---7---7---7---7-x4-|-------------------------|
D|------------------------------------|-------------------------|
A|------------------------------------|-7h8-7-7h8-7-h8-7-5-5-x4-|
E|------------------------------------|-------------------------|


E|------------------------------------|
B|------------------------------------|
G|------------------------------------|
D|-----------------------------10-----|
A|-9/10-9\5-7--9/10-9\5-x2-----8------|
E|------------------------------------|


VERSE: [palm muted]
E|----------------------------------------------|-----------------|
B|----------------------------------------------|-----------------|
G|----------------------------------------------|-----------------|
D|-10-------7-7-7-7-7-7-7-7--3-3-3-3-3-3-3-3----|---2-----2-----2-|
A|-8---x16--5-5-5-5-5-5-5-5--1-1-1-1-1-1-1-1-x2-|-0---0-----------|
E|----------------------------------------------|-------3---3-1---|


CHORUS:
E|----------------------------------------------|
B|----------------------------------------------|
G|----------------------------------------------|
D|-10-------7-7-7-7-7-7-7-7--3-3-3-3-3-3-3-3----|
A|-8---x16--5-5-5-5-5-5-5-5--1-1-1-1-1-1-1-1-x2-|
E|----------------------------------------------|


E|----------------------------------------------------------------|
B|----------------------------------------------------------------|
G|----------------------------------------------------------------|
D|-10------7-7-7-7-7-7-7-7--3-3-3-3-3-3-3-3--5-5-5-5-5-5-5-5--5---|
A|-8--x16--5-5-5-5-5-5-5-5--3-3-3-3-3-3-3-3--5-5-5-5-5-5-5-5--3---|
E|----------------------------------------------------------------|


E|------------------------------------|
B|------------------------------------|
G|------------------------------------|
D|-----------------------------10-----|
A|-9/10-9\5-7--9/10-9\5-x2-----8------|
E|------------------------------------|


VERSE


CHORUS


INTERLUDE:
E|---------------------------------------------|
B|---------------------------------------------|
G|---------------------------------------------|
D|-10-----7-7-7-7-7-7-7-7--3-3-3-3-3-3-3-3-----|
A|-8--x8--5-5-5-5-5-5-5-5--1-1-1-1-1-1-1-1-x2--|
E|---------------------------------------------|


CHORUS


OUTRO:
E|-------------------------|-------------------------------------|
B|-------------------------|-8---8---6---6---5---5---6---6-------|
G|-------------------------|---7---7---7---7---7---7---7---7--x2-|
D|-------------------------|-------------------------------------|
A|-7h8-7-7h8-7-h8-7-5-5-x4-|-------------------------------------|

OptimusPrime

Submitted by OptimusPrime at Sun 01 Dec, 2002 8:38 am

Author: ?
Composer: ?
Publisher: ?
Language: English

Reactions

1 post

CommonCrawl [Bot]
Anonymous
Tue 27 May, 2003 9:53 am
this is the worst tab ive ever seen
1 post • Page 1 of 1

Follow Muzikum