Blink 182

Blink 182
Adams Song Live Ver 3 (Guitar tab)

-------------------------------------------------------------------------------------------
ADAM'S SONG - Blink 182(live - Mark Tom And Travis Show)
-------------------------------------------------------------------------------------------

By:ecca@ericsmail.com

Intro:
eb|------------------------------------------------------------|
Bb|------------------------------------------------------------|
Gb|------------------------------------------------------------|
Db|-----2-------2-------2-----2------2------2-------2------2---|(2x)
Ab|--0----3--0----3------3------3------3------3-------3------3-|
Eb|-------------------3-----3------1------1-------0------1-----|

eb|--------------------------------------------------------------------|
Bb|--------------------------------------------------------------------|
Gb|---5555555----------------------------------------------------------|
Db|---5555555-33333333-77777777-333333333------------------------------|(4x)
Ab|---3333333-33333333-77777777-333333333------------------------------|
Eb|-----------11111111-55555555-111111111------------------------------|

eb|----------------------------------------------------------------------------|
Bb|----------------------------------------------------------------------------|
Gb|--------------------2-----2-------------------------------------------------|
Db|--5--5--3--3------0--3--0--3-------2------2-----2-----2---------------------|(2x)
Ab|-3--3--5--5----------------------0---3--0---3-----3-----3-------------------|
Eb|----------------------------------------------1-----1-----------------------|

eb|--------------------------------------------------------------------|
Bb|--------------------------------------------------------------------|
Gb|-5555555-7777777----------------------------------------------------|
Db|-----------------7777777-3333333------------------------------------|(2x)
Ab|-3333333-5555555----------------------------------------------------|
Eb|-----------------5555555-1111111------------------------------------|

eb|--------------------------------------------------------------------|
Bb|--------------------------------------------------------------------|
Gb|-5555555-7777777----------------------------------------------------|
Db|-5555555-7777777-7777777-3333333------------------------------------|(2x)
Ab|-3333333-5555555-7777777-3333333------------------------------------|
Eb|-----------------5555555-1111111------------------------------------|

Bridge part:A
eb|-----------------|
Bb|-----------------|
Gb|-----------------|
Db|---2--2--2--2----|(x10)
Ab|-33-33-3-3-3-----|
Eb|-----------------|
part B
eb|---------------------|
Bb|---------------------|
Gb|---5--5---5-5---5----|
Db|---------------------| x3(during 3rd time keep playing till chorus)
Ab|-33-33-333-33-33-----|
Eb|---------------------|

intro, 1st verse, interlude, chorus, intro, 2nd verse, interlude,
chorus, Bridge partA ,Bridge part b , chorus

============================================================================


trust me this is right give or take a few notes on the bridge part.

OptimusPrime

Submitted by OptimusPrime at Sun 01 Dec, 2002 8:38 am

Author: ?
Composer: ?
Publisher: ?
Language: English

Reactions

CommonCrawl [Bot]

Follow Muzikum