Blink 182

Blink 182
Man Overboard Ver 2 (Guitar tab)

Man Overboard

Intro:

G A C D

E-----------------------
B-----------------------
G-----------------------
D--------------5----7---
A--5-----7-----3----5*-- *= let ring then guitar thing 1
E--3-----5--------------

Lyrics: Mark

G A C
so sorry its over
G A C
so sorry its over
G A
There�s so much more that I wanted and (So sorry it's C
There�s so much more that I needed and over)
G A C
Time keeps moving on and on and on
(So Sorry it�s over)
D*
Soon we�ll all be gone


Guitar inturlude thing 1:

e---------------------
B---------------------
G--------------------- X4
D---------------------
A----2h3p2---2h3p2--0-
E--3------------------

Guitar inturlude thing 2:

e---------------------
B---------------------
G--------------------- X4
D-5-------------------
A----5h7p5--5h7p5---3-
E---------------------



Verse: (Palm Mute)
G E C
e-------------------------
B-------------------------
G-------------------------
D----------------------5--
A--5----------2--------3--
E--3----------0-----------



Lyrics: Mark

G
Lets save some time To talk this over
E C
You�re out of line and rarely sober
G
We can't depend On Your excuses
E C
Cause in the end Its fucking useless


Chorus: Tom

G E C
e----------------------------------
B----------------------------------
G----------------------5-----------
D--5----------2--------5-----------
A--5----------2--------3-----------
E--3----------0--------------------


G D
You can only lean on me for so long
E C
Bring the ship about to watch a friend drown
G D
Sit out on the ledge, begged you to come down
E C
You can only lean on me for so long


Guitar inturlude thing 1:

e---------------------
B---------------------
G--------------------- X4
D---------------------
A----2h3p2---2h3p2--0-
E--3------------------


Verse 2: Mark



G E C
e---------------------- -------- --------
B---------------------- -------- --------
G---------------------- -------- --------
D--------5---5---5---5- --5---5- --5---5-
A---------------------- -------- 33--33--
E------33--33--33--33-- 00--00-- --------


G
I remember shots without a chaser
E C
Absent minded thoughts now you�re a stranger
G
Cover up the scars put on your gameface
E C
Left you in the bar to try and save face

Chorus: Tom

G E C
e----------------------------------
B----------------------------------
G----------------------5-----------
D--5----------2--------5-----------
A--5----------2--------3-----------
E--3----------0--------------------


G D
You can only lean on me for so long
E C
Bring the ship about to watch a friend drown
G D
Sit out on the ledge, begged you to come down
E C
You can only lean on me for so long


Bridge


G A C D

E-----------------------
B-----------------------
G-----------------------
D--------------5----7---
A--5-----7-----3----5*-- *= let ring then guitar thing 1
E--3-----5--------------

Lyrics: Mark

G A C
so sorry its over
G A C
so sorry its over
G A
There�s so much more that I wanted and (So sorry it's C
There�s so much more that I needed and over)
G A C
Time keeps moving on and on and on
(So Sorry it�s over)
D*
Soon we�ll all be gone


Guitar inturlude thing 1:

e---------------------
B---------------------
G--------------------- X4
D---------------------
A----2h3p2---2h3p2--0-
E--3------------------

Guitar inturlude thing 2:

e---------------------
B---------------------
G--------------------- X4
D-5-------------------
A----5h7p5--5h7p5---3-
E---------------------


Ending: (Same as chorus except for when it is near the end of the song)
G D A C
E----------------------
B----------------------
G----------------------
D------7----2---5------
A--5---5----0---3------
E--3-------------------


Lyrics: mark

G D
Man on a mission, can't say i miss him around
E G C
Insider information, hand in your resignation
G D
Loss of a good friend, best of intentions I found
G A
Tight lipped procrastination
C D G(let ring)
Yeah later, see you around.



The other one i did was wrong, so i fixed it up and put the proper lyrics in it
so email me on: ecca@ericsmail
if u got any comments

OptimusPrime

Submitted by OptimusPrime at Sun 01 Dec, 2002 8:38 am

Author: ?
Composer: ?
Publisher: ?

Reactions

CommonCrawl [Bot]

Follow Muzikum