Blink 182

Blink 182
Reckless Abandon Ver 4 (Guitar tab)

Author/Artist: Blink 182
Title: Reckless Abandon
Album: Take off your pants and jacket
Transcribed by: Colin Kemege (boreddude)
Email: socksandspoons@hotmail.com

*NOTE:Exact Strumming not shown

Intro (Strummed, Clean, Exact Strumming Not Shown)
-|----------------------------------------------------------------------------
-|----------------------------------------------------------------------------
-|--4--------------------------------------------------------------------------
-|--4----------2------6--------4--------2--------------------------------------
-|--2----------2------6--------4--------2--------------------------------------
-|-------------0------4--------2--------0--------------------------------------


Main Riff
-|----------------------------------------------------------------------------
-|----------------------------------------------------------------------------
-|----------------------------------------------------------------------------
-|1----4--2----1----4--2----1-----4--2-----------1--------1-------------------
-|--2------------2-------------2-------------------2---4-----4-------(2)------
-|----------------------------------------------------------------------------
Verse (Strummed, Dist. Exact Strumming Not Shown)
-|----------------------------------------------------------------------------
-|----------------------------------------------------------------------------
-|-4444-----------------------------------------------------------------------
-|-4444-4444----------xx44----------------------------------------------------
-|-2222-4444----------xx44----------------------------------------------------
-|------2222----------xx22----------------------------------------------------

Chorus (Strummed, Dist. Exact Strumming Not Shown)
-|----------------------------------------------------------------------------
-|----------------------------------------------------------------------------
-|-4444-----------------------------------------------------------------------
-|-4444----2222---66-------44------2222----66------44-----2222----------------
-|-2222----2222---66-------44------2222----66------44-----2222----------------
-|---------0000---44-------22------0000----44------22-----0000----------------

Bridge (Clean)
-|----------------------------------------------------------------------------
-|----------------------------------------------------------------------------
-|-4------8--6----------------------------------------------------------------
-|-4--2---8--6----------------------------------------------------------------
-|-2--2---6--4----------------------------------------------------------------
-|----0----------------------------------------------------------------------- x4

(Strummed, Clean, Exact Strumming Not Shown)
-|----------------------------------------------------------------------------
-|----------------------------------------------------------------------------
-|-4444-----------------------------------------------------------------------
-|-4444--4444-----------------------------------------------------------------
-|-2222--4444-----------------------------------------------------------------
-|-------2222-----------------------------------------------------------------


Order:
Intro
Main Riff x2
Verse
Chorus
Main Riff x2
Verse
Chorus
Bridge

OptimusPrime

Submitted by OptimusPrime at Sun 01 Dec, 2002 8:38 am

Author: ?
Composer: ?
Publisher: ?
Language: English

Reactions

CommonCrawl [Bot]

Follow Muzikum