Blink 182

Blink 182
Just About Done Ver 2 (Guitar tab)

Author/Artist: Blink 182
Title: Just About Done
Album: Cheshire Cat
Transcribed by: Brandon Desilva
Email: slipknotbd@hotmail.com

This is a really funny song, and everybody that tabs it does a really horrible job
So this is the right way to play it! I'm 100% sure.

Standard Tuning

-|-6v--|----------------------------------------------------------------------
-|-----|----------------------------------------------------------------------
-|-----|-----------------4v-----------------------3v--------------------------
-|-----|----2-2-2--4/5------2-5-5-4---2-2-2--4/5-----2-5-5-4------------------
-|-----|----2-2-2--4/5------2-5-5-4---2-2-2--4/5-----2-5-5-4------------------
-|-----|----0-0-0--2/3------0-3-3-2---0-0-0--2/3-----0-3-3-2------------------
Play the 6 only at the start Play 2x

-|----------------------------------------------------------------------------
-|----------------------------------------------------------------------------
-|----------------------------------------------------------------------------
-|-2-5-4-3--------------------------------------------------------------------
-|-2-5-4-3--------------------------------------------------------------------
-|-0-3-2-1--------------------------------------------------------------------
Play 6x "Just about done with your butt we'll let you know hey!"

OptimusPrime

Submitted by OptimusPrime at Sun 01 Dec, 2002 8:38 am

Author: ?
Composer: ?
Publisher: ?
Language: English

Reactions

CommonCrawl [Bot]

Follow Muzikum