Blink 182

Blink 182
Voyeur Ver 4 (Guitar tab)

voyer

the reallly kool propper hell yeah way

verse 1
|----------------------------------------------------------------
|----------------------------------------------------------------
|--5------------------------------------------------------------*2
|--3-------------------7---------------3-----------------------
|--3-------------------7---------------3------------------------
|----------------------5---------------1-------------------------


|----------------------------------------------------------------
|---------------------------------------------------------------
|--55555555555555555--------------------------------------------*2
|--33333333333333333-777777777777-3333333-----------------------
|--33333333333333333-777777777777-3333333-----------------------
|--------------------333333333333-1111111-----------------------


Chorus
|-------------------------------------------------------------
|-------------------------------------------------------------
|------------5555-555-555------------------------------------------------
|--5555-3333-3333-333-333-5555---------------------------------
|--5555-3333-3333-----333-5555------------------------------------
|--3333-1111--------------3333-----------------------------------------


|---------------------
|---------------------
|------2--------------*1
|--2222-2222----------
|-----------2---------
|---------------------

|-----------------------------
|-----------------------------
|---------------------55555555---------
|--55555555-333333333-55555555-555555555
|--55555555-333333333-33333333-555555555
|--33333333-111111111----------3333333333333

|-------------------------------------------------------------
|-------------------------------------------------------------
|------------5555-555-555------------------------------------------------
|--5555-3333-3333-333-333-5555---------------------------------
|--5555-3333-3333-----333-5555------------------------------------
|--3333-1111--------------3333-----------------------------------------



|---------------------
|---------------------
|------2--------------*2
|--2222-2222----------
|-----------2---------
|---------------------


verse2
|----------------------------------------------------------------
|----------------------------------------------------------------
|--5------------------------------------------------------------*2
|--3-------------------7---------------3-----------------------
|--3-------------------7---------------3------------------------
|----------------------5---------------1-------------------------


|----------------------------------------------------------------
|---------------------------------------------------------------
|--55555555555555555--------------------------------------------*2
|--33333333333333333-777777777777-3333333-----------------------
|--33333333333333333-777777777777-3333333-----------------------
|--------------------333333333333-1111111-----------------------



Chorus
|-------------------------------------------------------------
|-------------------------------------------------------------
|------------5555-555-555------------------------------------------------
|--5555-3333-3333-333-333-5555---------------------------------
|--5555-3333-3333-----333-5555------------------------------------
|--3333-1111--------------3333-----------------------------------------


|---------------------
|---------------------
|------2--------------*1
|--2222-2222----------
|-----------2---------
|---------------------

|-----------------------------
|-----------------------------
|---------------------55555555---------
|--55555555-333333333-55555555-555555555
|--55555555-333333333-33333333-555555555
|--33333333-111111111----------3333333333333

|-------------------------------------------------------------
|-------------------------------------------------------------
|------------5555-555-555------------------------------------------------
|--5555-3333-3333-333-333-5555---------------------------------
|--5555-3333-3333-----333-5555------------------------------------
|--3333-1111--------------3333-----------------------------------------



|---------------------
|---------------------
|------2--------------*2
|--2222-2222----------
|-----------2---------
|---------------------



Bridge
|---------------------------------------
|--------------------------------------
|--5555555------------------------------------*3
|--5555555-55555555-77777777-3333333---------
|--3333333-55555555-77777777-3333333-------------
|----------33333333-55555555-1111111----------------


|-----------------------------------------
|-----------------------------------------
|--555555---------------------------------
|--555555-555555-77777777-3333333-5555555--
|--333333-555555-77777777-3333333-5555555--
|---------333333-55555555-1111111-3333333--


verse 3
|----------------------------------------------------------------
|----------------------------------------------------------------
|--5------------------------------------------------------------*2
|--3-------------------7---------------3-----------------------
|--3-------------------7---------------3------------------------
|----------------------5---------------1-------------------------


|----------------------------------------------------------------
|---------------------------------------------------------------
|--55555555555555555--------------------------------------------*2
|--33333333333333333-777777777777-3333333-----------------------
|--33333333333333333-777777777777-3333333-----------------------
|--------------------333333333333-1111111-----------------------


chorus

|-------------------------------------------------------------
|-------------------------------------------------------------
|------------5555-555-555------------------------------------------------
|--5555-3333-3333-333-333-5555---------------------------------
|--5555-3333-3333-----333-5555------------------------------------
|--3333-1111--------------3333-----------------------------------------


|---------------------
|---------------------
|------2--------------*1
|--2222-2222----------
|-----------2---------
|---------------------

|-----------------------------
|-----------------------------
|---------------------55555555---------
|--55555555-333333333-55555555-555555555
|--55555555-333333333-33333333-555555555
|--33333333-111111111----------3333333333333

|-------------------------------------------------------------
|-------------------------------------------------------------
|------------5555-555-555------------------------------------------------
|--5555-3333-3333-333-333-5555---------------------------------
|--5555-3333-3333-----333-5555------------------------------------
|--3333-1111--------------3333-----------------------------------------



|---------------------
|---------------------
|------2--------------*2
|--2222-2222----------
|-----------2---------
|---------------------

bridge reapeat

|---------------------------------------
|--------------------------------------
|--5555555------------------------------------*3
|--5555555-55555555-77777777-3333333---------
|--3333333-55555555-77777777-3333333-------------
|----------33333333-55555555-1111111----------------


|-----------------------------------------
|-----------------------------------------
|--555555---------------------------------
|--555555-555555-77777777-3333333-5555555--
|--333333-555555-77777777-3333333-5555555--
|---------333333-55555555-1111111-3333333--

bass solo

|---------------------
|---------------------
|------2--------------*2
|--2222-2222----------
|-----------2---------
|---------------------

end on c

thats pretty much it thanks a lot and enjoy

heres a little added section i never see this
part written in the tabs so i thought that is add it
carosel section
-|----------------------------------------------------------------------------
-|----------------------------------------------------------------------------
-|----------------------------------------------------------------------------
-|---457-5-4------------------------------------------------------------------
-|-5--------5---457-5-4----679-7-6----235-3-2---------------------------------
-|------------5--------5-7--------7-3---------3------------------------------- x4
crazy bridge

OptimusPrime

Submitted by OptimusPrime at Sun 01 Dec, 2002 8:38 am

Author: ?
Composer: ?
Publisher: ?
Language: English

Reactions

CommonCrawl [Bot]

Follow Muzikum