Blink 182

Blink 182
Pathetic Ver 6 (Guitar tab)

Blink 182 / Pathetic

Album : Dude Ranch
Words and music by Scott Raynor, Mark Hoppus and Tom Delange.
This is the perfect tab :


S : slide.
/// : don�t sing.
P-M �������� : palm mute


Intro

E]------------------------|------------------------|------------------------|�
B]-5-s-7---0----0--0-0-0--|-5-s-7---0----0--0-0-0--|-5-s-7---0----0--0-0-0--|�
G]------------------------|------------------------|------------------------|�
D]------------------------|------------------------|------------------------|�
A]------------------------|------------------------|------------------------|�
E]------------------------|------------------------|------------------------|�

�|-----------------------------|
�|--4--------4----------4------| X 2
�|-------4---------4--------4--|
�|-----------------------------|
�|-----------------------------|
�|-----------------------------|

Then

E]------------------------|------------------------|
B]-5-s-7---0----0--0-0-0--|-5-s-7---0----0--0-0-0--|
G]------------------------|------------------------|
D]------------------------|------------------------|
A]------------------------|------------------------|
E]------------------------|------------------------|
Singer 1 ://///////////////////////////////////// I
Singer 2 ://///////////////////////////////////////



VERSE 1
Riff 1

E]---------------------------------------------------------------------------------
B]---4--4---4---4---4---4---4---4---4---4---4----4--11--11---11--11---11---11------
G]---4--4---4---4---4---4---4---4---4---4---4----4--11--11---11--11---11---11------
D]---4--4---4---4---4---4---4---4---4---4---4----4--11--11---11--11---11---11------
A]---2--2---2---2---2---2---2---2---2---2---2----2--9---9----9---9----9----9-------
E]---------------------------------------------------------------------------------
Know I�m pa-the-tic I know when she said it.////////////////////////////////
//////////////////////////////////////////////A loser a bum�s what she

E]-------------------------------
B]--7---7----7---7---7----7------
G]--7---7----7---7---7----7------
D]--7---7----7---7---7----7------
A]--9---9----9---9---9----9------
E]-------------------------------
//////////////////////////////
she called me when I drove her


Continue with riff 1 :

Singer 1 : There�s no more wait-ing and sure no more wast-ing///////////////////
Singer 2 : home./////////////////////////////////////////////I�ve done all I can


S 1 : ///////////////////////////////// You got, you got___ to help me out____
S 2 : but she still wants to be left a-lone.///////////////////////////////And I�ll

S 1 : ///////////////////////No one, no one, no one____likes a drop out.____
S 2 : try not to ar-gue.____ /////////////////////////////////////////////Mis-takes


S 1 : ///////////////////////
S 2 : are hard_____ to un-do.



CHORUS


E]�-4--4---4---4---4----4---4-----4--4-------------2--2---2--2--2----2---2--2---2-
B]--4--4---4---4---4----4---4-----4--4---4-----4---2--2---2--2--2----2---2--2---2-
G]--4--4---4---4---4----4---4-----4--4---4-----4---3--3---3--3--3----3---3--3---3-
D]--6--6---6---6---6----6---6-----6--6---4-----4---4--4---4--4--4----4---4--4---4-
A]--6--6---6---6---6----6---6-----6--6---2-----2---4--4---4--4--4----4---4--4---4-
E]--4--4---4---4---4----4---4-----4--4-------------2--2---2--2--2----2---2--2---2-
Don�t pull me___ down, this is where
//////////////////////////////////////////////////////////////////////////////


E]--------------0--0---0--0--0---0---0--0---0--0--0---0---0--0---0--0--0---0---
B]--4----4------0--0---0--0--0---0---0--0---0--0--0---0---0--0---0--0--0---0---
G]--4----4------1--1---1--1--1---1---1--1---1--1--1---1---1--1---1--1--1---1---
D]--4----4------2--2---2--2--2---2---2--2---2--2--2---2---2--2---2--2--2---2---
A]--2----2------2--2---2--2--2---2---2--2---2--2--2---2---2--2---2--2--2---2---
E]--------------0--0---0--0--0---0---0--0---0--0--0---0---0--0---0--0�-0---0---
I be -- long.________//////////////////////////////////////////////////
////////// I think I�m dif � f�rent but I�m the same and__ I�m


Continue with chorus riff :

Singer 1 :///////////Don�t pull me__ down, this ih where I be � long.___
Singer 2 :wrong. ///////////////////////////////////////////// I think

S 1 :_____ //////////////////////// This is where I_____ be � long.________
S 2 : I�m dif � f�rent. /////////// This is where I_____ be � long.________




VERSE 2
(riff 1)

Singer 1 : I think it�s dis-gus-ting be-liev-ing and trust-ing.////////////////
Singer 2 : ////////////////////////////////////////////////////////// If I gave

S 1 : ////////////////////////////////////// Al-thoughit�s a-mus-ing it�s sight-ly
S 2 : a fuck, there would be noth-ing for me to prove. ////////////////////////////

S 1 : con-fu-sing. ////////////////////////////////////////////////// You got, you
S 2 : ///////////// I�ve done all I can but her e-go is still hard to move. //////

S 1 : got, you got___ to help me out.___ ////////////////////////// No one, no one
S 2 : /////////////////////////////////// I�ll try not to ar-gue___ ///////////////

S 1 : , no one___ likes a drop � out.___ /////////////////////////////////
S 2 ://///////////////////////////////// Mis-takes are hard___ to un � do.





CHORUS :

P-M ........................ P-M ........................
E]---------------------------------------------------------------------------------
B]---------------------------------------------------------------------------------
G]----------------------------------4---4------------------------------------4---4-
D]-6--------------------------------4---4-----4------------------------------4---4-
A]-6--------------------------------2---2-----4------------------------------2---2-
E]-4--4--4--4--4--4--4--4--4--4--4------------2--2--2--2--2--2--2--2--2--2--2------
S 1 : Don�t pull me___ down, this is where I be -
S 2 ://////////////////////////////////////////////////////////////////////////// I


P-M ........................... P-M ......................................
E]---------------------------------------------------------------------------------
B]---------------------------------------------------------------------------------
G]---------------------------------------------------------------------------------
D]-2-----------------------------------2-------------------------------------------
A]-2-----------------------------------2-------------------------------------------
E]-0-0-0-0-0-0-0-0-0-0-0--0--0--0--0---0--0--0--0--0--0--0--0--0--0--0--0--0--0--0-
S 1 : long.__________////////////////////////////////////////////////////////////
S 2 : think I�m dif-f�rent, but I�m the same and___ I�m



P-M ........................ P-M ........................
E]---------------------------------------------------------------------------------
B]---------------------------------------------------------------------------------
G]----------------------------------4---4------------------------------------4---4-
D]-6--------------------------------4---4-----4------------------------------4---4-
A]-6--------------------------------2---2-----4------------------------------2---2-
E]-4--4--4--4--4--4--4--4--4--4--4------------2--2--2--2--2--2--2--2--2--2--2------
S 1 : ////////// Don�t pull me____ down, this is where I be-
S 2 : wrong.///////////////////////////////////////////////////////////////////// I

S 1 :long._____ //////////////////////// This is where I_____ be � long.________
S 2 : think I�m dif � f�rent but this is where I_____ be � long.________



OUTRO

With chorus 1 riff

S 1 : Don�t pull me____ down, this is where I be-
S 2 : //////////////////////////////////////////////////////////////// I

S 1 :long._____ //////////////////////// This is where I_____ be � long.________
S 2 : think I�m dif � f�rent ///////// This is where I_____ be � long.________



If you want to contact me : f18-hornet@caramail.com

OptimusPrime

Submitted by OptimusPrime at Sun 01 Dec, 2002 8:38 am

Author: ?
Composer: ?
Publisher: ?
Language: English

Reactions

CommonCrawl [Bot]

Follow Muzikum