Blink 182

Blink 182
Fucked Up My Life Ver 2 (Guitar tab)

Intro
E [-----------------------]
B [------0---------------]
G [-----------2----------]
D [-3--------------------] 2x
A [-----------------------]
E [-----------------------]



Asus F#m Esus D (2x)

First Verse:
Asus F#m Esus D (2x)

Chorus:
Asus Esus F#m D Asus Esus F#m D A

Second Verse:
Asus F#m Esus D (2x)

Chorus:
Asus Esus F#m D Asus Esus F#m D A

Solo:
E [--------0------------------------0--------------------------0--------------------------0-----------
B [--------------------2------------------------2---------------------------2-------------------------
G [---2-------2---2------2---2--------2---2-----2------2------2-----2-----2------2-------2-------
D [-----------------------------------------------------0------------0------------0-------------------
A [-----------------------------------------------------------------------------------------------------
E [-----------------------------------------------------------------------------------------------------

E [----------------------------0------------------------------0---------------------------0------------
B [-----------2-------------------------------2-----------------------------2--------------------------
G [------2-------2-------2-------2-------2-----2------2--------2-----2-----2-----2------2---------
D [--0--------------------------------------------------------------------------------------------------
A [-------------------0----------------0-------------0---------------0-----------2--------------------
E [------------------------------------------------------------------------------------------------------

E [------------------------------------------------------------------------------------------------------]
B [--------2---------2------2-----2---2222222222--------------------------------------------------]
G [-----2----2----2------2-----2----- 2222222222--------------------------------------------------]
D [--------------0------0-----0-------0000000000---------------------------------------------------]
A [--2--------------------------------------------------------------------------------------------------]
E [------------------------------------------------------------------------------------------------------]

F#m D Asus (2x)

Esus D Asus

Last Verse:
Asus F#m D Asus F#m D Asus

OptimusPrime

Submitted by OptimusPrime at Sun 01 Dec, 2002 8:38 am

Author: ?
Composer: ?
Publisher: ?

Reactions

CommonCrawl [Bot]

Follow Muzikum