Blink 182

Blink 182
Please Take Me Home Ver 4 (Guitar tab)

"Please Take Me Home" +
Blink 182 +
Take Off Your Pants and Jacket+
(Arranged for 1 Guitar) +
+++++++++++++++++++++++++++++++

Intro (Play Twice)
e--------------------------------------------------------------------
B--------------------------------------------------------------------
G--8888888888888888888-----------------------------------------------
D--9999999999999999999--99999----------------------------------------
A--6666666666666666666--99999----------------------------------------
E-----------------------77777----------------------------------------

Verses 1 & 2 (Play Twice, Palm Muted)
e--------------------------------------------------------------------
B--------------------------------------------------------------------
G--44444444-66666666-------------------------------------------------
D--44444444-66666666-66666666-44444444-------------------------------
A--22222222-44444444-66666666-44444444-------------------------------
E--------------------44444444-22222222-------------------------------

Pre-Chorus
e--------------------------------------------------------------------
B--------------------------------------------------------------------
G--------44444-------------------------------------------------------
D--22222-44444-66666-44444-2222222222222222-4------------------------
A--22222-22222-66666-44444-2222222222222222-4------------------------
E--00000-------44444-22222-0000000000000000-2------------------------

Chorus
e--------------------------------------------------------------------
B--------------------------------------------------------------------
G--4444-3333-----------4444-3333-------------------------------------
D--4444-3333-6666-2222-4444-3333-6666-2222---------------------------
A--2222-1111-6666-2222-2222-1111-6666-2222---------------------------
E------------4444-0000-----------4444-0000---------------------------

Bridge Part 1 (Play Four Times)
e--------------------------------------------------------------------
B--------------------------------------------------------------------
G--------------------------------------------------------------------
D--4-4--6-6--8-8--9-9------------------------------------------------
A--2-2--4-4--6-6--7-7------------------------------------------------
E--------------------------------------------------------------------

Bridge Part 2 (Play Twice, Palm Muted)
e--------------------------------------------------------------------
B--------------------------------------------------------------------
D--44444444-66666666-88888888-99999999-------------------------------
G--44444444-66666666-88888888-99999999-------------------------------
A--22222222-44444444-66666666-77777777-------------------------------
E--------------------------------------------------------------------

Solo Part 1
e--------------------------------------------------------------------
B--------------------------------------------------------------------
G--44444444-33333333-88888888-6666-44-6------------------------------
D--xxxxxxxx-xxxxxxxx-xxxxxxxx-xxxx-xx-x------------------------------
A--22222222-11111111-66666666-4444-22-4------------------------------
E--------------------------------------------------------------------

Solo Part 2
e--------------------------------------------------------------------
B--------------------------------------------------------------------
G--44444444-33333333-88888888-66666666-------------------------------
D--xxxxxxxx-xxxxxxxx-xxxxxxxx-xxxxxxxx-------------------------------
A--22222222-11111111-66666666-44444444-------------------------------
E--------------------------------------------------------------------

Solo Part 3 (Play Twice) + Build Up (Palm Muted)
e----------------------------------+---------------------------------
B----------------------------------+---------------------------------
G--8-8888-8-8-888-8-8888-44-444----+--4444444444444444---------------
D--x-xxxx-x-x-xxx-x-xxxx-xx-xxx----+--4444444444444444---------------
A--6-6666-6-6-666-6-6666-22-222----+--2222222222222222---------------
E----------------------------------+---------------------------------

Last Chorus Part 1
e--------------------------------------------------------------------
B--------------------------------------------------------------------
G--4444-3333-----------4444-3333-------------------------------------
D--4444-3333-6666-2222-4444-3333-6666-2222---------------------------
A--2222-1111-6666-2222-2222-1111-6666-2222---------------------------
E------------4444-0000-----------4444-0000---------------------------

Last Chorus Part 2 (Play Twice)
e--------------------------------------------------------------------
B--------------------------------------------------------------------
G--8-8888-8-8-888-8-8888-8-8-888-------------------------------------
D--x-xxxx-x-x-xxx-x-xxxx-x-x-xxx-2222--------------------------------
A--6-6666-6-6-666-6-6666-6-6-666-2222--------------------------------
E--------------------------------0000--------------------------------

This is a 100% Accurate Tab, and a Great Song! The solo is the best
riff on the whole album. So Enjoy!
Tabbed By: BD Divens (Hurley182)
Email me @: Redsand795@aol.com or BwLmIaNgK@aol.com

OptimusPrime

Submitted by OptimusPrime at Sun 01 Dec, 2002 8:38 am

Author: ?
Composer: ?
Publisher: ?
Language: English

Reactions

CommonCrawl [Bot]

Follow Muzikum