Blink 182

Blink 182
Strings Ver 2 (Guitar tab)

Tabbed By Simon Richards
STRINGS - Blink 182
I Feel that this tab is about 99.8% correct if u have any queries or
extra bits to add to my tab please mail me at DelongeBlink@AOL.com

Intro x2
D5 A5 E5 G5
e|--------------------------------------|
B|--------------------------------------|
G|--7-7-7-7-----------9-9-9-9-----------|
D|--7-7-7-7--7-7-7-7--9-9-9-9--5-5-5-5--|
A|--5-5-5-5--7-7-7-7--7-7-7-7--5-5-5-5--|
E|-----------5-5-5-5-----------3-3-3-3--|

Intro/Verse (Riff 1) x2
e|-----------------------------------|
B|-----------------------------------|
G|-7---6--------7-----7-----7-----7--|
D|---7---7--4-5---4-5---4-5---4-5----|
A|-----------------------------------|
E|-----------------------------------|
Verse (If you wish to play chords version)
D5 A5
I would do anything and that's what scares me so bad
E5 G5
Don't wanna live my life alone don't wanna go back to what I had
D5 A5
Don't wanna spend my life without all those special things
E5 G5
Don't wanna walk around being tied to anyone else's...

Chorus x2
e|-----------------------------------|
B|-----------------------------------|
G|--55555555555555555555---10-10-10--|
D|--55555555555555555555---10-10-10--|
A|--33333333333333333333----8--8--8--|
E|-----------------------------------|
Striiiiiiiiiiiiiiiings Strings

Riff x2
e|-----------------------------------------------|
B|-----------------------------------------------|
G|--7-7-7-7-----------77-99-11--11-9-76----------|
D|--7-7-7-7--7-7-7-7--------------------5-5-5-5--|
A|--5-5-5-5--7-7-7-7--------------------5-5-5-5--|
E|-----------5-5-5-5--------------------3-3-3-3--|

BASS Then...
I would do anything and that's what scares me so bad
Don't wanna live my life alone don't wanna go back to what I had

Intro/Verse (Riff 1) x1
e|-----------------------------------|
B|-----------------------------------|
G|-7---6--------7-----7-----7-----7--|
D|---7---7--4-5---4-5---4-5---4-5----|
A|-----------------------------------|
E|-----------------------------------|
D5 A5
Don't wanna spend my life without all those special things
E5 G5
Don't wanna walk around being tied to anyone else's...
Chorus x2
e|-----------------------------------|
B|-----------------------------------|
G|--55555555555555555555---10-10-10--|
D|--55555555555555555555---10-10-10--|
A|--33333333333333333333----8--8--8--|
E|-----------------------------------|
Striiiiiiiiiiiiiiiings Strings

Solo
e|---------------------------------------------------------------|
B|---------------------------------------------------------------|
G|---------------------------------------------------------------|
D|-------------------------------7-7-5-4-------5p4-5p4---4-5p4---|
A|--5-5-4-5-4-5-7--5-5-4-5-4-5-7---------7-5-4---------5-------5-|
E|---------------------------------------------------------------|

e|---------------------------------------------------------------------|
B|---------------------------------------------------------------------|
G|-7p6-7p6-7p6-6-7-99-76--7p6-7p6-7p6-6-7-99-76-7-7-6------------------|
D|----------------------------------------------------7-5-4-5-5-4------|
A|----------------------------------------------------------------7-5-4|
E|---------------------------------------------------------------------|

C5 Fii5
e|---x2------------------------------|
B|-----------------------------------|
G|--55555555555555555555---10-10-10--|
D|--55555555555555555555---10-10-10--|
A|--33333333333333333333----8--8--8--|
E|-----------------------------------|

OptimusPrime

Submitted by OptimusPrime at Sun 01 Dec, 2002 8:38 am

Author: ?
Composer: ?
Publisher: ?
Language: English

Reactions

CommonCrawl [Bot]

Follow Muzikum