Blink 182

Blink 182
Alone Ver 2 (Guitar tab)

Alone - Blink 182
Flyswatter, Track 4

This is my favorite song off of Blink 182's first cd.
It sounds really cool when played with distortion. I
don't have the whole think yet cause it is kinda hard
to hear, it wasn't a very good recording job. Well,
I'll try to get the rest up. This song is cool, Down-
load it!

Intro, Lotsa Distortion
E---------------------------------------------------------------------
B---------------------------------------------------------------------
G---------------------------------------------------------------------
D---------------------------------------------------------------------
A-------------5--5--4\2---0----5---4---2------------------------------
E----0----------------------------------------------------------------

Repeat that a shit load of times, then

E---------------------------------------------------------------------
B---------------------------------------------------------------------
G---------------------------------------------------------------------
D---------------------------------------------------------------------
A-------------5--5--4\2--0-0--5-5--4-2-4-2----------------------------
E----0----------------------------------------------------------------

That's about the only part of the song where you can
hear the guitar clear enough to know what to play. I
might have messed up, but shit, the chord to my amp
is broken and all i have is an electric. Oh well.

OptimusPrime

Submitted by OptimusPrime at Sun 01 Dec, 2002 8:38 am

Author: ?
Composer: ?
Publisher: ?
Language: English

Reactions

CommonCrawl [Bot]

Follow Muzikum