Blink 182

Blink 182
Carousel Ver 7 (Guitar tab)

#
#

tabbed by: Peter Tom Takaro 'Nouseforaname'
song : Carousel
artist : Blink 182 bass&vocals - Mark Hoppus
guitar&vocals - Tom Delonge
drums - Scott Raynor
album : Chesire Cat

keys : / - slide up
\ - slide down
h - hammer on
p - pull off
PM - Palm mute
~ - let ring

***INTRO******

**
PM PM
----- -----
| | | | then
E-|-----------------------------------------------------------|--|----------|
B-|-----------------------------------------------------------|--|----------|
G-|-7-7777777-------------------------------------------------|--|----------|
D-|-7-7777777-4h5-5-5-5-4-----9-9999999-----------------------|x2|----------|
A-|-5-5555555-------------7~~-9-9999999-7h9-10-10-10-9-7\5~~--|--|-4/5~~~~~~|
E-|---------------------------7-7777777-----------------------|--|----------|

**

Bass Riff converted to solo guitar :) *(not good on a bass guitar)
D---4-4-5-7-5-4---------------------------------------------------------
A-5-------------5----4-4-5-7-5-4--------7-7-9-10-9-7-9------5-----5---5-
E------------------5-------------5----7-----------------3-3---3-3---3---

D---4-4-5-7-5-4---------------------------------------------------------
A-5-------------5----4-4-5-7-5-4--------7-7-9-10-10-9-9--5-5-5-5-5-5-5-5
E------------------5-------------5----7------------------3-3-3-3-3-3-3-3


**then

E-|---------------------------------------------------------------------------|
B-|---------------------------------------------------------------------------|
G-|-9/11-11--11--11-11---11\9-9--9--9-9---9/11-11--11--11-11---11\7-7--7--7-7-|
D-|-0-----0---0---0--0----0---7--7--7-7---7/9---9---9---9--9----9\5-5--5--5-5-|
A-|---------------------------------------------------------------------------|
E-|---------------------------------------------------------------------------|


**
then play D A B G power chords

**solo riff

A-|-4/5~~--4/5-5555555--7p5-4/5~~--4/5-555-7-5-4h5-7-5--7-5\4--|
E-|------------------------------------------------------------|


D-|-4--4-4-4h5p4----------|-4--4-4-4h5p4-7-7-5-5-4---|
A-|--------------7-777777-|------------------------7-|
E-|-----------------------|--------------------------|

D-|-4--4-4-4h5p4----------|5p4------4h5p4----4--5p4--|
A-|--------------7-77777-5|----5--5--------5--------5|
E-|-----------------------|--------------------------|

**end of INTRO

**1st Verse

PM PM PM PM
--- --- --- ---
| | | | | | | |
E-|-------------------------------------------------------------------------|
B-|-------------------------------------------------------------------------|
G-|-7---7-7--7--7-7--------------------4---4-4--4--4-4----------------------|
D-|-7---7-7--7--7-7--7---7-7--7--7-7---4---4-4--4--4-4---5---5-5--5--5-5----| x2
A-|-5---5-5--5--5-5--7---7-7--7--7-7---2---2-2--2--2-2---5---5-5--5--5-5----|
E-|------------------5---5-5--5--5-5---------------------3---3-3--3--3-3----|

Palm mute the whole thing
/ ---------------------------------------------------------------------\
| |
E-|-------------------------------------------------------------------------|
B-|-------------------------------------------------------------------------|
G-|-7-----7-----7----2-----2-----2----4-----4-----4----0-----0-----0--------|
D-|---7-7---7-7---7----2-2---2-2---2----4-4---4-4---4----0-0---0-0---0------| x2
A-|-------------------------------------------------------------------------|
E-|-------------------------------------------------------------------------|

**Chorus

play D E(7th fret) A G Power Chords

**solo riff again

D-|-4--4-4-4h5p4----------|-4--4-4-4h5p4-7-7-5-5-4---|
A-|--------------7-777777-|------------------------7-|
E-|-----------------------|--------------------------|

D-|-4--4-4-4h5p4----------|5p4------4h5p4----4--5p4--|
A-|--------------7-77777-5|----5--5--------5--------5|
E-|-----------------------|--------------------------|


**2nd Verse

PM PM PM PM
--- --- --- ---
| | | | | | | |
E-|-------------------------------------------------------------------------|
B-|-------------------------------------------------------------------------|
G-|-7---7-7--7--7-7--------------------4---4-4--4--4-4----------------------|
D-|-7---7-7--7--7-7--7---7-7--7--7-7---4---4-4--4--4-4---5---5-5--5--5-5----| x2
A-|-5---5-5--5--5-5--7---7-7--7--7-7---2---2-2--2--2-2---5---5-5--5--5-5----|
E-|------------------5---5-5--5--5-5---------------------3---3-3--3--3-3----|

**then only bass plays the Verse chords

**BRIDGE

E-|-------------------------------------------------------------------------|
B-|-------------------------------------------------------------------------|
G-|-7-----------------------------4-----------------------------------------|
D-|-7-0-4-7-5-4-0--7--------------4---1-4-2-1----5--------------------------| x4
A-|-5--------------7-0-4-7-5-4-0--2-2---------2--5---2-5-3-2----------------|
E-|----------------5-----------------------------3-3---------3---3----------|

**Chorus again

**end on a D Power Chord

**Lyrics

Talk to you every now and then
I never felt so alone again
Stop to think at a wishing well
My thoughts sends me on a carousel
Here I am standing on my own
Not a motion from the telephone
I know it's not a reason why
Solitude's a reason to die

Just you wait and see
As school life is a
It is a woken dream
Aren't you feeling alone?
I guess it's just another
I guess it's just another
I guess it's just another
night alone

Now as I walk down the street
I need a job just to sleep in sheets
Buying food every once in a while
But not enough to purchase a smile
A tank of gas is a treasure to me
I now know that nothing is free
Talk to you every now and then
Never felt so alone again


----Chords used in this song
D A or A B or B G E(7th Fret)
E-|---------------------------------------|
B-|---------------------------------------|
G-|-7--------2---4------------9-----------|
D-|-7---7----2---4----9---5---9-----------|
A-|-5---7----0---2----9---5---7-----------|
E-|-----5-------------7---3---------------|


**errors,comments,anything else on nouseforaname@freemail.hu

OptimusPrime

Submitted by OptimusPrime at Sun 01 Dec, 2002 8:38 am

Author: ?
Composer: ?
Publisher: ?
Language: English

Reactions

CommonCrawl [Bot]

Follow Muzikum