Blink 182

Blink 182
Carousel Ver 5 (Guitar tab)

Carousel
Blink 182: Cheshire Cat & Buddha (C.C. version)
(Guitar)
*If somethin's wrong, e-mail me : jetforce@home.com

intro (slightly distorted) palm muted
E---------------------------------------------------------(play 2x)----
B---!------------------------------------------------------------------
G---7-7-7-7-7-7-7-7-7-7-7-7-7------------------------------------------
D---7-7-7-7-7-7-7-7-7-7-7-7-7-----0--5-5-5-5-4-------------------------
A---5-5-5-5-5-5-5-5-5-5-5-5-5--0----------------7----------------------
E----------------------------------------------------------------------
No p.m.
E----------------------------------------------------------------------
B----------------------------------------------------------------------
G----------------------------!-----------------------------------------
D---7-7-7-7-7-7-7-7-7-7-7-7--9-9-9-9-9-9-9-9-9-9-9-9-9----0--5-5-5-4---
A---7-7-7-7-7-7-7-7-7-7-7-7--9-9-9-9-9-9-9-9-9-9-9-9-9--0-------------7
E---5-5-5-5-5-5-5-5-5-5-5-5--7-7-7-7-7-7-7-7-7-7-7-7-7-----------------
No p.m.
E------------------------------------- --------(last time)----
B------------------------------------- -----------------------
G------------------------------------- -----------------------
D---5-5-5-5-5-5-5-5-5-5-5-5-5-5-5-5--- -----------------------
A---5-5-5-5-5-5-5-5-5-5-5-5-5-5-5-5--- ---4-/-5---------------
E---3-3-3-3-3-3-3-3-3-3-3-3-3-3-3-3--- -----------------------
riff I (clean) *use 5th pickup
E---------------------------------------------------------(play 2x)----
B----------------------------------------------------------------------
G----------------------------------------------------------------------
D---4-4--5--7--5--4-------------------2-2--4--5--4--2--4---------------
A--------------------4-4--5--7--5--4----------------------5-----5-5----
E-----------------------------------------------------------5-5-----5-5

E----------------------------------------------------------------------
B----------------------------------------------------------------------
G----------------------------------------------------------------------
D---x-x----------------------------------------------------------------
A---x-x--9-9-x-x-7-7-x-x-9-9-x-x-5-5--x-x-9-9-x-x-7-7-x-x-9-9-x-x-5-5--
E---x-x----------------------------------------------------------------

E----------------------------------------------------------------------
B----------------------------------------------------------------------
G---x-x--7-7--x-x--9-9--x-x--11-11-------7-7---------------------------
D---x-x--x-x--x-x--x-x--x-x--x--x---x-x--x-x---------------------------
A---x-x--9-9--x-x--7-7--x-x--9--9---x-x--5-5---------------------------
E----------------------------------------------------------------------

E----------------------------------------------------------------------
B----------------------------------------------------------------------
G--------7-7-----------------------------------------------------------
D---x-x--x-x--x-x--7-7--x-x--9-9--x-x--5-5-----------------------------
A---x-x--9-9--x-x--7-7--x-x--9-9--x-x--5-5-----------------------------
E----------------------------------------------------------------------
(fuzz)
E----------------------------------------------------------(play 2x)---
B----------------------------------------------------------------------
G---7-7-7-7---7-7-7-7-9-/-7-7-7-7--7-7-7-7-7-7-7-----------------------
D---7-7-7-7---7-7-7-7-7---7-7-7-7--5-5-5-5-5-5-5-----------------------
A---5-5-5-5-\-4-4-4-4-4-/-5-5-5-5--------------------------------------
E----------------------------------------------------------------------

E----------------------------------------------------------------------
B----------------------------------------------------------------------
G---7-7-7-7-7-7-7---7---7-7-7-7-7-7-7---7---7-7-7-7-7-7-7---7-7---7----
D---x-x-x-x-x-x-x---x---x-x-x-x-x-x-x---x---x-x-x-x-x-x-x---x-x---x----
A---5-5-5-5-5-5-5-/-4-/-5-5-5-5-5-7-5-/-4-/-5-5-5-5-5-5-5-/-4-4-/-5----
E----------------------------------------------------------------------

E----------------------------------------------------------------------
B----------------------------------------------------------------------
G---7-7-7-7-7-/-7------------------------------------------------------
D---x-x-x-x-x-/-x------------------------------------------------------
A---7-4-5-7-5-/-4------------------------------------------------------
E----------------------------------------------------------------------

E---------------------------------------------------------(play 2x)----
B----------------------------------------------------------------------
G----------------------------------------------------------------------
D---4-4-4h5p4-/-2-2-2h4p2-/-4-4-4h5p4--7-7-/-5-5-/-4-4-/-2-------------
A----------------------------------------------------------------------
E----------------------------------------------------------------------

E----------------------------------------------------------------------
B----------------------------------------------------------------------
G----------------------------------------------------------------------
D---0-0h4p0p5h0-----0-0h4p0h5p0h4p0------------------------------------
A----------------0-----------------------------------------------------
E----------------------------------------------------------------------

E---"I talk to you every now and then..."-----------------(play 2x)----
B---------------------------------------8-8--8-8-----------------------
G---7-x-7-7-7---------------------------7-7--7-7-----------------------
D---7-x-7-7-7--7-x-7-7-7--9-x-9-9-9--5--5-5--5-5-----------------------
A---5-x-5-5-5--7-x-7-7-7--9-x-9-9-9--5---------------------------------
E--------------5-x-5-5-5--7-x-7-7-7--3---------------------------------

E---"Here I am, standing on my own..."--------------------(play 2x)----
B---7-----7-----7----5-----5-----5----7-----7-----7--------------------
G-----7-7---7-7---7----6-6---6-6---6----7-7---7-7---7--7-----7-----7---
D--------------------------------------------------------5-5---5-5---5-
A----------------------------------------------------------------------
E----------------------------------------------------------------------

E---"Just you wait and see..."----------------------------(play 4x)----
B----------------------------------------------------------------------
G---7-7-7-7--9-9-9-9---------------------------------------------------
D---7-7-7-7--9-9-9-9--7-7-7-7--5-5-5-5---------------------------------
A---5-5-5-5--7-7-7-7--7-7-7-7--5-5-5-5---------------------------------
E---------------------5-5-5-5--3-3-3-3---------------------------------

E---------------------------------------------------------(play 2x)----
B----------------------------------------------------------------------
G----------------------------------------------------------------------
D---4-4-4h5p4-/-2-2-2h4p2-/-4-4-4h5p4--7-7-/-5-5-/-4-4-/-2-------------
A----------------------------------------------------------------------
E----------------------------------------------------------------------

E----------------------------------------------------------------------
B----------------------------------------------------------------------
G----------------------------------------------------------------------
D---0-0h4p0p5h0-----0-0h4p0h5p0h4p0------------------------------------
A----------------0-----------------------------------------------------
E----------------------------------------------------------------------

E---"Now I'm walking down the street..."------------------(play 2x)----
B---------------------------------------8-8--8-8-----------------------
G---7-x-7-7-7---------------------------7-7--7-7-----------------------
D---7-x-7-7-7--7-x-7-7-7--9-x-9-9-9--5--5-5--5-5-----------------------
A---5-x-5-5-5--7-x-7-7-7--9-x-9-9-9--5---------------------------------
E--------------5-x-5-5-5--7-x-7-7-7--3---------------------------------
(clean)
E-------- -----------------------------------------------------
B-------- -----------------------------------------------------
G---7:--- -----------------------------------------------------
D---7:--- -----------------------------------------------------
A---5:--- ---9-9-9-9-9-/-7-7-7-7-7-/-9-9-9-9-9-/-5-5-5-5-5-----
E-------- -----------------------------------------------------

E----------------------------------------------------------------------
B----------------------------------------------------------------------
G----------------------------------------------------------------------
D----------------------------------------------------------------------
A---9-9-9-9-9-/-7-7-7-7-7-/-9-9-9-/-7-/-5-5-5-5-5----------------------
E----------------------------------------------------------------------

E---------------------------------------------------------(play 2x)----
B----------------------------------------------------------------------
G---7------------------------------------------------------------------
D---7--4-5-7-5-4-0---7----------------9--------------5-----------------
A---5----------------7--4-5-7-5-4-0---9--6-7-9-7-6---5--2-3-5-3-2-0----
E--------------------5----------------7--------------7--3--------------

E---"Just you wait and see..."----------------------------(play 4x)----
B----------------------------------------------------------------------
G---7-7-7-7--9-9-9-9---------------------------------------------------
D---7-7-7-7--9-9-9-9--7-7-7-7--5-5-5-5---------------------------------
A---5-5-5-5--7-7-7-7--7-7-7-7--5-5-5-5---------------------------------
E---------------------5-5-5-5--3-3-3-3---------------------------------

End on D

OptimusPrime

Submitted by OptimusPrime at Sun 01 Dec, 2002 8:38 am

Author: ?
Composer: ?
Publisher: ?
Language: English

Reactions

CommonCrawl [Bot]

Follow Muzikum