Blink 182

Blink 182
Story Of A Lonely Guy Ver 4 (Guitar tab)

Title; story of a lonely guy
Artist; blink 182
Album; take off your pants and jacket
Tabbed by; Tom booth


INTRO

E -------0--0--0---5---5----7------0----0---0----5----5-----7-----5----5--5--------------------
B-----------------------------------------------------------------------------------------------------
G-----------------------------------------------------------------------------------------------------
D-----------------------------------------------------------------------------------------------------
A-----------------------------------------------------------------------------------------------------
E-----------------------------------------------------------------------------------------------------


VERSE EACH CHORD IS PLAYED 8 TIMES

E------------------------------------------------------------------------------------------------------
B------------------------------------------------------------------------------------------------------
G------------------------------------------------------------------------------------------------------
D----7-------9----11-----12-------------------------------------------------------------------------
A----7------ 9----11-----12-------------------------------------------------------------------------
E----5-------7----9-------10-------------------------------------------------------------------------

PRE CHORUS


E------------------------------------------------------------------------------------------------------
B------------------------------------------------------------------------------------------------------
G------------------------------------------------------------------------------------------------------
D----------7-----------7-------------7-------------7-----------7-----------7----------7-------7----
A-4---4-------4---4-------5-----5------5------5-------------------------------7--7-----7--7------
E--------------------------------------------------------5---5-------5----5--------------------------


CHORUS PLAY EACH CHORD 8 TIMES


E------------------------------------------------------------------------------------------------------
B------------------------------------------------------------------------------------------------------
G------------9---------6-------7---------------------------------------------------------------------
D----7-------7---------6------5---------------------------------------------------------------------
A----5-------7---------4------5---------------------------------------------------------------------
E----5-------------------------------------------------------------------------------------------------



MIDDLE 8


E------------------------------------------------------------------------------------------------------
B------------------------------------------------------------------------------------------------------
G------------------------------------------ (---9----------)------------------------------------------
D---------------7-----------------7------- (---9�x 16--)-----repeat------------7----------7----
A----4----4-----------5----5------------- (---7----------)------------------4--4-----4--4--------
E------------------------------------------------------------------------------------------------------


E------------------------------------------------------------------------------------------------------
B------------------------------------------------------------------------------------------------------
G------------------------------------------------------------------------------------------------------
D-----------7----------7-------------7----------7-------7----------7----------7--------------7-----
A----5--5------5--5----------7--7-------7--7-----7-7-----7--7-------4--4--------5---5----------
E------------------------------------------------------------------------------------------------------



OUTRO



E------------------------------------------------------------------------------------------------------
B------------------------------------------------------------------------------------------------------
G-------3-----------------------------------------------------------------------------------------------
D-------3----X--16----3-------------------------------------------------------------------------------------
A-------5---------------3--------------------------------------------------------------------------------
E------------------------5------------------------------------------------------------------------------

ORDER

INTRO

VERSE X 2

PRE CHORUS X 2

CHORUS X 2

INTRO

VERSE X 2

PRE CHORUS X 2

CHORUS X 2

MIDDLE 8

CHORUS

OUTRO




==================================================================================================================================================

OptimusPrime

Submitted by OptimusPrime at Sun 01 Dec, 2002 8:38 am

Author: ?
Composer: ?
Publisher: ?
Language: English

Reactions

CommonCrawl [Bot]

Follow Muzikum