Blink 182

Blink 182
All The Small Things Ver 6 (Guitar tab)

Author/Artist: blink182
Title: whats my age again
Transcribed by: Jesse Moses
------------------------------------------------------------------------------
-----9-------9-------9-------9------------------------------------------------
---9---9---9---9---9---9---9---9----------------------------------------------
-7----------------------------------------------------------------------------
---------7--------------------------------------------------------------------
-----------------7-------9----------------------------------------------------
repeat this twice

------------------------------------------------------------------------------
------------------------------------------------------------------------------
--7777------9999-11-11-11-11--------------------------------------------------
--7777-7777-9999-11-11-11-11--------------------------------------------------
--5555-7777-7777-9--9--9---9--------------------------------------------------
-------5555-------------------------------------------------------------------
listen to the cd you will figure it out

OptimusPrime

Submitted by OptimusPrime at Sun 01 Dec, 2002 8:38 am

Author: ?
Composer: ?
Publisher: ?
Language: English

Reactions

CommonCrawl [Bot]

Follow Muzikum