Blink 182

Blink 182
Dumpweed Ver 4 (Guitar tab)

Album: Mark,Tom,and Travis show album and enema of the state
Song title: Dumpweed
Artist:Blink 182
Tabbed by: Dookieboy (Greendaylive@hotmail.com)

Dumpweed
Tabbed by: Mark Gravina
h - Hammer
p - pull off...not like that!
~ - let it ring
x - palm mute

Here is one funky little tune...have fun!


e|-------------------------------------------------------
B|-------------------------------------------------------
G|-----1-1h2----------------1-1h2------------------------
D|--2-------------4-----2--------------4~~---------------
A|--2---------2-0---2---2---------2--0-------------------
E|--0-------------------0--------------------------------

e|------------------------------------------------------
B|------------------------------------------------------
G|--2---1-1h2-----------2-----1-1h2--4------------------
D|--2-------------4-----2----------------4--------------
A|--0---------2-0---2---0--------------2----------------
E|------------------------------------------------------


This is that quick thing tom does

e|---4p0--4p0--2p0--2p0------4p0--4p0--5p0--5p0-------- x2
B|-------0----0----0-----0-------0----0----0-----0-----
G|-----------------------------------------------------
D|-----------------------------------------------------
A|-----------------------------------------------------
E|-----------------------------------------------------

Verse
All is palm muted except the first note (marked with a d)
e|--------------------------------------------------------
B|--------------------------------------------------------
G|-------------4-4-4-4-------------4-4-4-4----------------
D|-2--2-2-2-2--4-4-4-4--2-2-2-2-2--4-4-4-4---------------
A|-2--2-2-2-2--2-2-2-2--2-2-2-2-2--2-2-2-2---------------
E|-0--0-0-0-0-----------0-0-0-0-0------------------------
d pm_________________________________

It�s understood, I said it many ways
To scared to stay, I'm just gonna stay


e|--------------------------------------------------------
B|--------------------------------------------------------
G|-2--2-2-2-2--4-4-4-4-2-2-2-2-4-4-4-4--------------------
D|-2--2-2-2-2--4-4-4-4-2-2-2-2-4-4-4-4--------------------
A|-0--0-0-0-0--2-2-2-2-0-0-0-0-2-2-2-2--------------------
E|--------------------------------------------------------
d pm__________________________________

I said I�d leave, but I could never leave her
And if I did, you know I�d never cheat her


e|--------------------------------------------------------
B|--------------------------------------------------------
G|-------------4-4-4-4-------------4-4-4-4----------------
D|-2--2-2-2-2--4-4-4-4--2-2-2-2-2--4-4-4-4---------------
A|-2--2-2-2-2--2-2-2-2--2-2-2-2-2--2-2-2-2---------------
E|-0--0-0-0-0-----------0-0-0-0-0------------------------
d pm_________________________________

But this I ask, it�s what I want to know
How would you feel, if I should choose to go

e|--------------------------------------------------------
B|--------------------------------------------------------
G|-2--2-2-2-2--4-4-4-4-2-2-2-2-4-4-4-4--------------------
D|-2--2-2-2-2--4-4-4-4-2-2-2-2-4-4-4-4--------------------
A|-0--0-0-0-0--2-2-2-2-0-0-0-0-2-2-2-2--------------------
E|--------------------------------------------------------
d pm__________________________________

Another guy, you think it�d be unlikely
Another guy, you think he�d want to fight me

pre-chorus

e|-------------------------------------------------------
B|-------------------------------------------------------
G|-----1-1h2----------------1-1h2------------------------
D|--2-------------4-----2--------------4~~---------------
A|--2---------2-0---2---2---------2--0-------------------
E|--0-------------------0--------------------------------

e|------------------------------------------------------
B|------------------------------------------------------
G|--2---1-1h2-----------2-----1-1h2--4------------------
D|--2-------------4-----2----------------4--------------
A|--0---------2-0---2---0--------------2----------------
E|------------------------------------------------------


Chorus
el---------------------------------------------------------------------
Bl---------------------------------------------------------------------
Dl-------------------4-4-4-4-4-4-4-4--2-2-2-2-2-2-2-2--4-4-4-4-4-4-4-4-
Gl--2-2-2-2-2-2-2-2--4-4-4-4-4-4-4-4--2-2-2-2-2-2-2-2--4-4-4-4-4-4-4-4-
Al--2-2-2-2-2-2-2-2--2-2-2-2-2-2-2-2--0-0-0-0-0-0-0-0--2-2-2-2-2-2-2-2-
El--0-0-0-0-0-0-0-0----------------------------------------------------
She�s a dove, She�s a fucken nightmare Unpredictable,
it was my mistake to stay here On the go and it�s way too late to play

e|------------------------------------------------------
B|------------------------------------------------------
G|-------4----4-----------------------------------------
D|-------2----4-----------------------------------------
A|-------2----2-----------------------------------------
E|------------------------------------------------------

I need A Girl That I can train


Post chorus

e|---4p0--4p0--2p0--2p0------4p0--4p0--5p0--5p0-------- x2
B|-------0----0----0-----0-------0----0----0-----0-----
G|-----------------------------------------------------
D|-----------------------------------------------------
A|-----------------------------------------------------
E|-----------------------------------------------------


Verse 2
All is palm muted except the first note (marked with a d)
e|--------------------------------------------------------
B|--------------------------------------------------------
G|-------------4-4-4-4-------------4-4-4-4----------------
D|-2--2-2-2-2--4-4-4-4--2-2-2-2-2--4-4-4-4---------------
A|-2--2-2-2-2--2-2-2-2--2-2-2-2-2--2-2-2-2---------------
E|-0--0-0-0-0-----------0-0-0-0-0------------------------
d pm_________________________________

I heard it once, I�m sure I heard it twice
My dad used to give me all of his advice


e|--------------------------------------------------------
B|--------------------------------------------------------
G|-2--2-2-2-2-4-4-4-4-2-2-2-2-4-4-4-4--------------------
D|-2--2-2-2-2-4-4-4-4-2-2-2-2-4-4-4-4--------------------
A|-0--0-0-0-0-2-2-2-2-0-0-0-0-2-2-2-2--------------------
E|--------------------------------------------------------
d pm__________________________________

He would say you got to turn your back and run now
Come on son, you haven�t got a chance now


pre-chorus

e|-------------------------------------------------------
B|-------------------------------------------------------
G|-----1-1h2----------------1-1h2------------------------
D|--2-------------4-----2--------------4~~---------------
A|--2---------2-0---2---2---------2--0-------------------
E|--0-------------------0--------------------------------

e|------------------------------------------------------
B|------------------------------------------------------
G|--2---1-1h2-----------2-----1-1h2--4------------------
D|--2-------------4-----2----------------4--------------
A|--0---------2-0---2---0--------------2----------------
E|------------------------------------------------------


Chorus
el---------------------------------------------------------------------
Bl---------------------------------------------------------------------
Dl-------------------4-4-4-4-4-4-4-4--2-2-2-2-2-2-2-2--4-4-4-4-4-4-4-4-
Gl--2-2-2-2-2-2-2-2--4-4-4-4-4-4-4-4--2-2-2-2-2-2-2-2--4-4-4-4-4-4-4-4-
Al--2-2-2-2-2-2-2-2--2-2-2-2-2-2-2-2--0-0-0-0-0-0-0-0--2-2-2-2-2-2-2-2-
El--0-0-0-0-0-0-0-0----------------------------------------------------

She�s a dove, She�s a fucken nightmare Unpredictable,
it was my mistake to stay here On the go and it�s way too late to play

e|---------------------------------------------------------------
B|---------------------------------------------------------------
G|-------4----4---------------4-4-4-4------------4-4-4-4---------
D|-------2----4----2-2-2-2-2--4-4-4-4-2-2-2-2-2--4-4-4-4---------
A|-------2----2----2-2-2-2-2--2-2-2-2-2-2-2-2-2--2-2-2-2---------
E|-----------------0-0-0-0-0----------0-0-0-0-0------------------
pm____________________________________

I need A Girl That I can train


e|--------------------------------------------------------
B|--------------------------------------------------------
G|-2-2-2-2-2-4-4-4-4-2-2-2-2-4-4-4-4--------------------
D|-2-2-2-2-2-4-4-4-4-2-2-2-2-4-4-4-4--------------------
A|-0-0-0-0-0-2-2-2-2-0-0-0-0-2-2-2-2--------------------
E|--------------------------------------------------------
pm__________________________________

need A Girl That I can train


e|---4p0--4p0--2p0--0~--------4p0--4p0--2p0--0---------
B|-------0----0----0---------0----0----0---------------
G|-----------------------------------------------------
D|-----------------------------------------------------
A|-----------------------------------------------------
E|-----------------------------------------------------

e|---4p0--4p0--2p0--0~--------4p0--4p0--2p0--0-2-------
B|-------0----0----0---------0----0----0---------------
G|-----------------------------------------------------
D|-----------------------------------------------------
A|-----------------------------------------------------
E|-----------------------------------------------------

need A Girl That I can train

e|---4p0--4p0--2p0--0~--------4p0--4p0--2p0--0---------
B|-------0----0----0---------0----0----0---------------
G|-----------------------------------------------------
D|-----------------------------------------------------
A|-----------------------------------------------------
E|-----------------------------------------------------

e|---4p0--4p0--2p0--0~--------4p0--4p0--2p0--0-2-------
B|-------0----0----0---------0----0----0---------------
G|-----------------------------------------------------
D|-----------------------------------------------------
A|-----------------------------------------------------
E|-----------------------------------------------------

need A Girl That I can train

All of ther sections are here but i dont have the song
within not have to get up distance, so im not sure if
it has the right amount of section, u can figure the rest
out.

Wanna date me? No, what about comment on my tab, you can email me

OptimusPrime

Submitted by OptimusPrime at Sun 01 Dec, 2002 8:38 am

Author: ?
Composer: ?
Publisher: ?
Language: English

Reactions

CommonCrawl [Bot]

Follow Muzikum