Blink 182

Blink 182
Dammit Ver 2 (Guitar chord)

By brendan the biggest blink 182 fan ever
dammit


intro

-----------------------------------------------------------
------------------------------------------------------------
------------------------------------------------------------
--------00---2--------00---22-----------00--2---------22---------------
----33----------------------------00-----------------------0------
-----------------33------------------------------11---------------



Verse
C5 G5 A5 F5
its alright, to tell me, what u think about me
C5 G5 A5 F5
i won't try, to argue, or hold it, against you
(SAME CHORDS)
i know that, your leaving, you must have good reasons,
the season, is calling, your pictures are fallin down

intro


same as verse 1

the steps that, i retraced, the sad look, on your face
the timing, and structure, did you hear, he ----- her
a day late, a buck short, i'm writing, the report,
i'm loosing, and failing, when i move, i'm sailing now

chorus
C5 G5 A5
its happened once again, you'll turn to a friend
F5 C5 G5
someone that understands, see to the master plan,
A5 F5
but everybodies gone, and ive been here for to long

to face on my own while i guess this is growing up

intro

VERSE 3 SAME CHORDS AS VERSE 1 AND 2


and maybe, i'll see you, at a movie, sneek preview
you'll show up, and walk by, on the arm, of that guy
and i'll smile, and you'll wave, will pretend, it's ok
the sharray, it won't last, when he's gone, i won't come back

chorus

the slow part


-----------------------------------------------------------------
------------5-----------------5--------------5---------5555---
----------------5----------------5---------------5-----5555-------
--------------------5-----5-------------5--------------5555------
-------------------------------------------------------------------
-----------------------------------------------------------------


while i guess this is growin up (8 times with the intro to)

end on C5


any comments or questions, e-mail at mr_blink182@hotmail.com

OptimusPrime

Submitted by OptimusPrime at Sun 01 Dec, 2002 8:38 am

Author: ?
Composer: ?
Publisher: ?
Language: English

Reactions

CommonCrawl [Bot]

Follow Muzikum