Blink 182

Blink 182
Going Away To College Ver 5 (Guitar tab)

I know this tab is 100% correct because i got this off them playing it
live. It took me ages to work this out so enjoy!

Intro: Rhy. Fig. 1 w/light distortion and low speed/depth phasing.
Place capo on fret 2. If you do not have a capo then simply move
up all of my tabs up 2 frets, e.g if you play one note on fret 7, then take
it down to 5.
The intro is a difficult thing to play as you need to do some muting but
im sure you'll work out a way

Note: I'm not quite sure of the rhythm when changing between chords. Just
play what sounds right. You can get away without using any distortion at
this point, it sounds better with just the phasing in my opinion.

B

e ---2--2--2--2-2-----2----2--2----2--2--------------
B ------------------------2----2-- 2---2---2--------------
G --8--8--8--8--8----------------------------------------- X2
D --9--9--9--9--9----11-11--11-11-11-------------
A --2--2--2--2--2-----2---2---2--- 2--2-------------
E ---------------------------------------------------------

C
e --2--2--2--2--2----2--2--2--2--2--2--2----------- If you think it sounds better without the top
B --4--4--4--4--4---------------------------------- e then just mute it.
G -4--4--4--4--4----6--6--6--6--6--6--6------------
D --2--2--2--2--2----2--2--2--2--2--2--2----------- X2
A --2--2--2--2--2----2--2--2--2--2--2--2-----------
E -------------------------------------------------



Riff A: w/heavy dist

B F#
e-|-----------------------------------------------------
B-|-----------------------------------------------------
G-|o----------8---------8----------8--------------------
D-|o----9----------9----------9-----------11-----11-----
A-|-----------------------7-7---7-7---9-9----9-9--------
E-|--7-7---7-7--7-7--7-7--------------------------------


Verse: Rhy. Fig. 2 w/heavy dist
B E F#
e----------------------------------
B----------------------------------
G-----------9-9-9-9-11-11-11-11----
D-9--9-9-9--9-9-9-9-11-11-11-11----
A-9--9-9-9--7-7-7-7--9--9--9--9----
E-7--7-7-7-------------------------


Chorus: Rhy. Fig. 3 w/heavy dist
G#m(from bass) E B F#* x4
e---------------------------------------------------------------------
B---------------------------------------------------------------------
G--8-8-8-8-8-8-8-8-8/9-9-9-9-9-9-9-9-4-4-4-4-4-4-4-4------------------
D--------------------9-9-9-9-9-9-9-9-4-4-4-4-4-4-4-4-4-4-4-4-4-4-4-4--
A--6-6-6-6-6-6-6-6-6/7-7-7-7-7-7-7-7-2-2-2-2-2-2-2-2-4-4-4-4-4-4-4-4--
E----------------------------------------------------2-2-2-2-2-2-2-2--

F# IS the correct chord.

Riff B: w/heavy dist
e--------------------------------------------------
B--------------------------------------------------
G------8-----8-----8-----8-----8-----8-----9-------
D------------------------------------------------9-
A--------------------------7-7---7-7---9-9---9-9---
E--7-7---7-7---7-7---7-7---------------------------

Note: Mute all the notes on the A and E strings.


Here's how it all comes together:
Rhy Fig. 1x2
Riff A
Rhy. Fig. 2 x2
Riff A
Rhy. Fig. 2 x2
Rhy. Fig. 3
Riff A
Riff B x2
Rhy. Fig. 2 x2
Rhy. Fig. 3
Rhy. Fig. 1 x2
Rhy. Fig. 3 If you think this order sounds wrong when you play
it then just experiment around in different orders until you're happy.

ENJOY! Please if you wanna send thanks to me then my email is:

OptimusPrime

Submitted by OptimusPrime at Sun 01 Dec, 2002 8:38 am

Author: ?
Composer: ?
Publisher: ?
Language: English

Reactions

CommonCrawl [Bot]

Follow Muzikum