Blink 182

Blink 182
All The Small Things Ver 2 (Guitar tab)

artist-blink182
song-all the small things
transcribed by-corey


intro - play fast
|-----------------------------------------------------------------------------|
|-----------------------------------------------------------------------------|
|-------5-5-5-5-5-5-5-5--10-10-10-10-10-10-10-10------------------------------|
|--5-3--5-5-5-5-5-5-5-5--10-10-10-10-10-10-10-10-5-5-5-5-5-5-5-5-xxxxxxxx-3-3-|: repeat
|--5-3--3-3-3-3-3-3-3-3--8--8--8--8--8--8--8--8--5-5-5-5-5-5-5-5-xxxxxxxx-3-3-|
|--3-1-------------------------------------------3-3-3-3-3-3-3-3-xxxxxxxx-1-1-|

verse - palm muting
|-----------------------------------------------------|
|-----------------------------------------------------|
|--x5-------------------------------------------------|
|--x5 =8 times--x5-----------x3-----------x5----------|: repeat 4 times 1st verse
|--x3-----------x5 =8 times--x3 =8 times--x5 =8 times-| repeat 2 times 2nd verse
|---------------x3-----------x1-----------x3----------|


"nana nana" part
|------------------------------------|
|------------------------------------|
|--5---------------------------------|
|--5 =16 times-5----------3----------|: repeat
|--3-----------5 =8 times-3 =8 times-|
|--------------3----------1----------|

after "nana" part
|-----------------------------------------------------------------------------|
|-----------------------------------------------------------------------------|
|-------5-5-5-5-5-5-5-5--10-10-10-10-10-10-10-10------------------------------|
|--5-3--5-5-5-5-5-5-5-5--10-10-10-10-10-10-10-10-5-5-5-5-5-5-5-5-xxxxxxxx-3-3-|: repeat
|--5-3--3-3-3-3-3-3-3-3--8--8--8--8--7--7--7--7--5-5-5-5-5-5-5-5-xxxxxxxx-3-3-|
|--3-1-------------------------------------------3-3-3-3-3-3-3-3-xxxxxxxx-1-1-|

OptimusPrime

Submitted by OptimusPrime at Sun 01 Dec, 2002 8:38 am

Author: ?
Composer: ?
Publisher: ?
Language: English

Reactions

CommonCrawl [Bot]

Follow Muzikum