Blink 182

Blink 182
Shutup (Guitar tab)

Shutup by blink 182
Correct guitar tab
please email me: dan_kewl@hotmail.com

Intro

E------------------------------
B------------------------------
G-2-2-2-2-2-2-2-2--------------
D------------------------------
A------------------------------
E------------------------------


E------0-------0-------0-------0-----
B------------------------------------
G--2-2---2-2-2---2-2-2---2-2-2---2---
D------------------------------------
A------------------------------------
E------------------------------------ x 4

Verse 1
No guitar just bass

Middle break

E------0-------0----------0-------0----
B--------------------------------------
G----2---2---2---2------2---2---2---2--
D-----------------------------0--------
A--0-------0------0---4----------------
E-------------------------------------- x 2

Verse 2
No guitar just bass

Chorus:

E-------------------------------
B-------------------------------
G--7-----9-----4--7--4--7-------
D--7--7--9-----4--7--4--7-------
A--5--7--7-x2--2--5--2--5-------
E-----5-------------------------

Verse 3

A / C# D / x4

Chorus again

Middle bit:

E------------------------------
B------------------------------
G------------------------------
D--2--4--0---------------------
A--2--4--0---------------------
E------------------------------

Solo:

E---------9-7-----------9-7-10---
B-10-9-7------10-10-9-7----------
G--------------------------------
D--------------------------------
A--------------------------------
E--------------------------------

Chords underneath are A / C# D /

Chorus again:

Outro:

E------0-------0-------0-------0-----
B------------------------------------
G--2-2---2-2-2---2-2-2---2-2-2---2---
D------------------------------------
A------------------------------------

OptimusPrime

Submitted by OptimusPrime at Sun 01 Dec, 2002 8:38 am

Author: ?
Composer: ?
Publisher: ?
Language: English

Reactions

CommonCrawl [Bot]

Follow Muzikum