Blink 182

Blink 182
Stay Together For The Kids Live (Guitar tab)

Stay Together for The Kids (LIVE ON JAY LENO)
Tabbed Live Jeremy Antoine (imhot_10@hotmail.com)
Guitartabs.cc
Please Rate This Tab

Standard tuning

Intro (Clean)
e|----------------------------------------------------
B|----------------------------------------------------
G|----------------------------------------------------
D|----0---7------4--0------0-----7---------4---0------
A|--5---5---5------------4----4-----4-----------------
E|----------------------------------------------------


e|----------------------------------------------------
B|----------------------------------------------------
G|----------------------------------------------------
D|------0------4---0-----5---0------------------------
A|--2-----2----------2--------------------------------
E|----------------------------------------------------


Verse (clean)
e|----------------------------------------------------
B|----------------------------------------------------
G|------7------7------7------7-------7------7------7--
D|------7------7------7------7-------7------7------7--
A|--5-5----5-5----5-5----5-5--------------------------
E|-------------------------------7-7----7-7----7-7----


e|-------------------------------------
B|-------------------------------------
G|-----7-------7------7------7------7--
D|-----7-------7------7------7------7--
A|---------0-0----0-0----0-0----0-0----
E|-7-7---------------------------------


e|-----------------------
B|-----------------------
G|-----9------9------6---
D|-----7------7------7---
A|-0-0----0-0----0-0-----
E|-----------------------


Chorus (Heavy Distortion) 2x
e|----------------------------------------------------
B|----------------------------------------------------
G|----------------------------------------------------
D|-000000000000000000000000000000000000000000000000000
A|-555555555555555555555555555555555555555555555555555
E|-333333333333333322222222222222023333333333333333222


con't (at end of chorus)
e|--------------- ------
B|--------------- ------
G|--------------- --5---
D|0000000000000-- --5---
A|5555555555555-- --3---
E|2222222222202-- ------


Interlude thing near end (clean)
e|----------------------------------------------------
B|----------------------------------------------------
G|--7-----------------------7------------9----------7-
D|--7-----------------------7------------7----------7-
A|--5-----------------------5------------4----------5-
E|----------------------------------------------------

OptimusPrime

Submitted by OptimusPrime at Sun 01 Dec, 2002 8:37 am

Author: ?
Composer: ?
Publisher: ?
Language: English

Reactions

CommonCrawl [Bot]

Follow Muzikum