Blink 182

Blink 182
Seasons In The Sun (Guitar tab)

Submitted by: matt fontaine
Song Title: seasons in the sun
Artist: blink-182
File Type: .tab
Intro
E------------------------
B------------------------
G------------------------
D------------------------
A-2-3-4-2~2-3-4-2~2-3-4-3~
E-2-3-4-2~2-3-4-2~2-3-4-3~
PALM MUTE
E-------------------------------
B-------------------------------
G-------------------------------
D-------------------------------
A-2-2-3-3-2-2-3-3-2-2-3-3-2-2-3-3
E-2-2-3-3-2-2-3-3-2-2-3-3-2-2-3-3
The "2-2" part is palm muted, but not the "-3-"
E------------------------------
B------------------------------
G------------------------------
D------------------------------
A-2-2-3-2-2-3-2-2-3-2-2-3-2-2-3-
E-2-2-3-2-2-3-2-2-3-2-2-3-2-2-3-

E------------------------------
B------------------------------
G------------------------------
D------------------------------
A-5-5-5-5-5-5-5-5-6-6-6-6-6-6-6
E-3-3-3-3-3-3-3-3-4-4-4-4-4-4-4

repeat whole thing twice
OUTRO
E------------------------------
B------------------------------
G------------------------------
D------------------------------
A-5-~~~~6!
E-3-~~~~4!

OptimusPrime

Submitted by OptimusPrime at Sun 01 Dec, 2002 8:37 am

Author: ?
Composer: ?
Publisher: ?
Language: English

Reactions

CommonCrawl [Bot]

Follow Muzikum