Blink 182

Blink 182
Give Me One Good Reason Ver 6 (Guitar tab)

Band: Blink-182
Album: Take Off Your Pants and Jacket
Song: Give Me One Good Reason
Tabbed By: Rebecca Chen (taxi-gurl@mbox.com.au)
====================================================================================

Intro:
e|---------------|----------------|
B|---------------|----------------|
G|-----1----1----|----------------|
D|---------------|---2-4----4-2---| (2x)
A|---2--------2--|----------------|
E|-0------0------|-0------0-------|

e|---------------|----------------|
B|---------------|----------------|
G|-----1----1----|----------------|
D|---2--------2--|---2-4----4-2---|
A|-4------4------|-0------0-------|
E|--------------------------------|

e|---------------|---------2-2-2-2--|
B|---------------|------------------|
G|-----1----1----|------------------|
D|---2--------2--|---2-4------------|
A|-4------4------|-2----------------|
E|---------------|------------------|

Verse: (All PM)
e|---------------------------------------------------------------------------|
B|---------------------------------------------------------------------------|
G|------------4-4-4-4-4-------6-6-6-6-6--2-2-2-2-2---6-6-6-6-6-6--4-4-4-4-4--|
D|-2-2-2-2-2--4-4-4-4-4-(2x)--6-6-6-6-6--2-2-2-2-2---6-6-6-6-6-6--4-4-4-4-4--|
A|-2-2-2-2-2--2-2-2-2-2-------4-4-4-4-4--0-0-0-0-0---4-4-4-4-4-4--2-2-2-2-2--|
E|-0-0-0-0-0-----------------------------------------------------------------|

Fill in between Verses:
e|----------------------------|
B|----------------------------|
G|----------1-----------------|
D|-2-2-2-2------------1h2-2---| (2x)
A|-2-2-2-2----x-x-2-2---------|
E|-0-0-0-0--------------------|

Chorus:
e|-------------------------|
B|-------------------------|
G|----9--4-------9--4-2----|
D|-2--9--4----2--9--4-2----|
A|-2--7--2----2--7--2-0----| (2x)
E|-0----------0------------|

Do Verse, Fill, then Chorus again

Interlude: (Number of strums, work out yourself)
e|--------------------|----------------------------|
B|--------------------|----------------------------|
G|--------------------|----------------------------|
D|-2-4-6-7-6-2---2----|-2-4-6-7-6-2-4-6/2-4-4-6/2--|
A|-------------2---2--|----------------------------|
E|--------------------|----------------------------|

Do the first bit again, then this one:
e|------------------------------------|
B|------------------------------------|
G|------------------------------------|
D|-2-4-6-7-6-2-4-6/2/4-4-6/2--2-1-2---|
A|------------------------------------|
E|------------------------------------|

Then Bass plays by itself, then do Chorus (1x).... End on E..


Lyrics:

Mom and Dad they quite don't understand it
All the kids they laugh as if they planned it
Why do girls wanna pierce their nose
And walk around in torn pantyhose, Oh yeh

I like the ones who say they listen to the punk rock
I like the kids who fight against how they were brought up
They hate the trends they think its fucked to care
It's cool when they piss people off with what they wear, Oh yeh

So give me one good reason
Why we need to be like them
Kids will have fun and offend
They don't want to and don't fit in

Hate the jocks, the preps, the hippie-fuckin' scumbags
Heavy metalers with their awful, pussy hair bands
Counting seconds until we can get away
Ditchin' school almost every single day, Oh yeh

So give me one good reason
Why we need to be like them
Kids will have fun and offend
They don't want to and don't fit in

========================================================================================

OptimusPrime

Submitted by OptimusPrime at Sun 01 Dec, 2002 8:37 am

Author: ?
Composer: ?
Publisher: ?
Language: English

Reactions

CommonCrawl [Bot]

Follow Muzikum