Blink 182

Blink 182
Every Time I Look For You Ver 2 (Guitar tab)

blink 182

every time i look for you

take off your pants and jacket



^- strum up and down reallly fast

*- strum semmi fast



intro

[]--------------------------------------------------------------
[]--------------------------------------------------------------
[]---------------------------------------------------------------
[]---------------------------------------------------------------
[]----------------------------------------------------------------
[]---8---8-8-8-8-8-8-8-8-8-8-8-8---8----8-8-8-8-8-8-8-8--8-8-8----
^^^^^^^^^^^^^^^^^^^^^^^^ ^^^^^^^^^^^^^^^^^^^^^^^


verse

[]-------------------------------------------------------------
[]-------------------------------------------------------------
[]--------------8-----------------10---------------------------
[]----7---------8-------9---------10---------------------------
[]----7---------6-------9---------8----------------------------
[]----5-----------------7----------------------------------0---


pre verse


[]--------------------------------------------------------------------
[]--------------------------------------------------------------------
[]---6-6-6-6-6-6--------7-7-7-7-7-7--------8-8-8-8-8-8----------------
[]---6-6-6-6-6-6--------7-7-7-7-7-7--------8-8-8-8-8-8----------------
[]---4-4-4-4-4-4--------5-5-5-5-5-5--------6-6-6-6-6-6----------------
[]--------------------------------------------------------------------
******************************************************

chorus


[]-------------------------------------------------------------------
[]-------------------------------------------------------------------
[]---4-4-4-4-4-4------6-6-6-6-6-6------7-7-7-7-7-7-------------------
[]---4-4-4-4-4-4------6-6-6-6-6-6------7-7-7-7-7-7-------------------
[]---2-2-2-2-2-2------4-4-4-4-4-4------5-5-5-5-5-5-------------------
[]-------------------------------------------------------------------

***************************************************
bass solo


after bass solo play slow 8x each

[]-------------------------------------------------------------------
[]-------------------------------------------------------------------
[]----8-8-8-8-8-8-8-8------------------7-7-7-7-7-7-7-7----------------
[]----8-8-8-8-8-8-8-8-7-7-7-7-7-7-7-7--7-7-7-7-7-7-7-7-8-8-8-8-8-8-8-8
[]----6-6-6-6-6-6-6-6-7-7-7-7-7-7-7-7--5-5-5-5-5-5-5-5-8-8-8-8-8-8-8-8
[]--------------------5-5-5-5-5-5-5-5------------------6-6-6-6-6-6-6-6

this is distorted

OptimusPrime

Submitted by OptimusPrime at Sun 01 Dec, 2002 8:37 am

Author: ?
Composer: ?
Publisher: ?
Language: English

Reactions

CommonCrawl [Bot]

Follow Muzikum