Blink 182

Blink 182
Track 38 (Guitar tab)

Track 38
from the Mark, Tom, and Travis Show
this song is kinda sick, but what would you expect from
Mark, Tom, and Travis
The lyrics are at the end of the tab.
joewren@yahoo.com


h
E------r------------------------------------------------------------------------
B------e------------------------------------------------------------------------
G------s------------------------------------------------------------------------
D------t------------------------------------------------------------------------
A---4---------------------------------------------------------------------------
E---2-----4--4--4--4--4--4--4--4/6--6--6--6--6--6--6--6/7--7--7--7--7--7--7-----



E-------------------------------------------------------------------------------
B-------------------------------------------------------------------------------
G-------------------------------------------------------------------------------
D-------------------------------------------------------------------------------
A-------------------------------------------------------------------------------
E---7\2--2--2--2--2--2--2--2/4--4--4--4--4--4--4--4/6--6--6--6--6--6--6--6------



E-------------------------------------------------------------------------------
B-------------------------------------------------------------------------------
G-------------------------------------------------------------------------------
D-------------------------------------------------------------------------------
A-------------------------------------------------------------------------------
E---/7--7--7--7--7--7--7--7\2--2--2--2--2--2--2--2/4--4--4--4--4--4--4--4/6-----



E-------------------------------------------------------------------------------
B-------------------------------------------------------------------------------
G-------------------------------------------------------------------------------
D-------------------------------------------------------------------------------
A-------------------------------------------------------------------------------
E---6--6--6--6--6--6--6/7--7--7--7--7--7--7--7\2--2--2--2--2--2--2--2/4--4------


h
E----------------------------------------------r--------------------------------
B----------------------------------------------e--------------------------------
G----------------------------------------------s--------------------------------
D----------------------------------------------t--------------------------------
A-------------------------------------------------4-----------------------------
E---4--4--4--4--4--4/6--6--6--6--6--6--6--6/7-----2-----------------------------

Now the lyrics:

I know a guy,
He has sex with his sister.
He used his dick to pop her,
four foot blister.
And I know its not that cool,
He fucked her in my swimming pool.
He's got three testicles, and he
He loves to (studder) do shit. FUCK YEAH!!!!



================================================================================
== TABLATURE EXPLANATION ==
================================================================================

---------- ---------- ----t---
----5h8--- Hammeron ----(8)--- Ghost ----6--- Tap
---------- ---------- Note --------
----5p8--- Pulloff ---------- --------

---------- ---------- -----p--
----5/8--- Slide Up -----x---- Dead -----7-- Pop
---------- ---------- Note --s-----
----5\8--- Slide Down ---------- --5----- Slap

---------- ||------|| Repeat --------
----5~~~-- Vibrato ||*----*|| ---5^--- Bend
---------- ||*----*|| --------
---------- ||------|| --------

---------- ---------- --------
-4:------- Time ---------- --------
-4:------- Signature ---------- --------
---------- ---------- --------

Rhythm:
w = whole note W = dotted whole
h = half note H = dotted half
q = quarter note Q = dotted quarter
e = eighth note E = dotted eighth
s = sixteenth note S = dotted sixteenth
t = 32nd note T = dotted 32nd
x = 64th note X = dotted 64th
^ = triplet

================================================================================
== Created with BUCKET O' TAB for Windows ==
================================================================================

OptimusPrime

Submitted by OptimusPrime at Sun 01 Dec, 2002 8:37 am

Author: ?
Composer: ?
Publisher: ?
Language: English

Reactions

CommonCrawl [Bot]

Follow Muzikum