Blink 182

Blink 182
Bonus Track 14 (Guitar tab)

Song: bonus track 14 from green version
Artist: Blink 182
Album: Take Off Your Pants and Jacket (2001)
Written by Blink 182
Transcribed by Anna-Louise

This is 100% correct. It's very simple & Tom himself checked it. I get him to check all my transcriptions......seriously

Chords used:
E --------------------------
B --------------------------
G ----5--------------------
D ----5----5----3----7---
A ----3----5----3----7---
E ---------3----1----5---
C G F A5

Strumming isn't all written out, you'll figure it out yourself

Intro Interlude "hold on, hold on..."
E ------------------------------------------------------------------------
B ------------------------------------------------------------------------
G ----5------5--5------5------5--5------------5--5--5--5--5------
D ----5------5--5------5------5--5------------x--x--x--x--x-------
A ----3------3--3------3------3--3------------3--3--3--3--3------
E -----------------------------------------------------------------------

Verse
E --------------------------------------------
B -------------------------------------------
G ----5xxxxxx---------------------------
D ----5xxxxxx-----5xxx----3xxx----
A ----3xxxxxx-----5xxx----3xxx---
E ----------------3xxx----1xxx----

Riff
E ---------------------------------------
B ---------------------------------------
G ----------------------------------------
D --------2--0--2-----------2--0------
A ----3------------------3---------------
E ---------------------------------------

Chorus
E -------------------------------------------------
B -------------------------------------------------
G ----5--5--5--5--5-----------------------------
D ----5--5--5--5--5-----5--5-----3--3-------
A ----3--3--3--3--3-----5--5-----3--3-------
E ----------------------3--3-----1--1------

Bridge (distorted)
E --------------------------------------------------------
B --------------------------------------------------------
G ----5--5--5--5--5-----------------------------------
D ----5--5--5--5--5-----5--5-----7--7-----3--3-----
A ----3--3--3--3--3-----5--5-----7--7-----3--3-----
E ----------------------3--3-----5--5-----1--1-----

Order:
Intro
Interlude
Chorus
Riff
Verse
Interlude
Riff
Bridge
Chorus
End on C
The last time I submitted this song I got a million emails asking
for Tom Delonge's email address (I DO NOT HAVE IT) & people bashing me for making a little mistake
when writing this out. If you have any problems with this, figure it out for yourself.

OptimusPrime

Submitted by OptimusPrime at Sun 01 Dec, 2002 8:37 am

Author: ?
Composer: ?
Publisher: ?
Language: English

Reactions

CommonCrawl [Bot]

Follow Muzikum