Blink 182

Blink 182
Time To Wake Up (Guitar tab)

Artist: Blink 182
Album: Take Off Your Pants And Jacket
Title: Time To Wake Up (Secret Track 14 on Airplane CD)
Transcriptors: Justin and Kyle Chin
Email: JayChin19@juno.com

Intro Gtr. 1 & 2 (dist.)
D|66---44---44---4----4----|
A|66---44---44---4----4----|
E|44-0-22-0-11-0-2----2----|

Double-Time Feel Gtr. 1 & 2 (dist.) Play 2x
PM PM PM
D|--3-3--1-1---3-3--1-1---3-3--1-1-------4-------6------|
A|4----------4---------------------------4-------6------|
E|----------------------4------------2---2---44--4--44--|

Verse Gtr. 1 (dist.)
G|-6-| D|44---44-|
D|-x-| 30x A|44---44-|
A|-4-| E|22---22-|

Verse Gtr. 2 (dist.) (Fills in on the 17th time with Gtr. 1)
G|6---6---6---6----6---6----6---6----6---6---6---6----6---6------------------------------|
D|6---6---6---6----6---6----4---4----6---6---6---6----6---6---44-----44------------------|
A|4---4---4---4----6---6----4---4----4---4---4---4----6---6---44-----44------------------|
E|------------------------------------------------------------22-----22------------------|

Chorus Gtr. 1 & 2 (dist. Play 2X)
D|6666666666666666-4444444444444444-4444444444444444-6666666666666666--------------------|
A|4444444444444444-4444444444444444-4444444444444444-6666666666666666--------------------|
E|4444444444444444-1111111111111111-2222222222222222-4444444444444444--------------------|

Play Double-Time Feel, Verse then Chorus.

Interlude Gtr. 2 (Clean Play 3X)
A|--4----4----4----4----4----4----4----4----4----4----4----4----6----6----6----6---------|
E|6----6----6----6----2----2----2----2----6----6----6----6----4----4----4----4-----------|

Interlude Cont.
A|--4----4----4----4----6----6----6----6----4----4----4----4----6----6----6----6---------|
E|4----4----4----4----4----4----4----4----4----4----4----4----4----4----4----4-----------|

Gtr. 1 (dist.)
Let it ring . . . . . . . . . . . . . . . . . .
D|6--6-----------6--6----------6--6----------6--6--------66------66----------------------|
A|4--4-----------6--6----------4--4----------6--6--------66------66----------------------|
E|4--4-----------4--4----------4--4----------4--4--------44------44----------------------|

Gtr. 1 & 2 (dist.)
D|6666666666666666-4444444444444444-4444444444444444-6666666666666666-6666666666666666---|
A|4444444444444444-4444444444444444-4444444444444444-6666666666666666-4444444444444444---|
E|4444444444444444-1111111111111111-2222222222222222-4444444444444444-4444444444444444---|

Gtr. 1 & 2 (dist.) Cont.
D|4----44444-4444444444444444-6666666666666666-------------------------------------------|
A|4----44444-4444444444444444-6666666666666666-------------------------------------------|
E|1----11111-2222222222222222-4444444444444444-------------------------------------------|

Outro. Gtr. 1 & 2 (dist.) End on this
D|6666666666666666-6666666666666666-| D|6-|
A|4444444444444444-6666666666666666-| 4X A|4-|
E|4444444444444444-4444444444444444-| E|4-|

OptimusPrime

Submitted by OptimusPrime at Sun 01 Dec, 2002 8:37 am

Author: ?
Composer: ?
Publisher: ?
Language: English

Reactions

CommonCrawl [Bot]

Follow Muzikum