Blink 182

Blink 182
First Date Ver 4 (Guitar tab)

brendan l
first date
take off ur pantz and jacket

right after the drum thing
-0------------------------------------------------------------
---1---1-------3--1---1------3--1---1--------3--1-----0-------
-----0---0----------0---0---------0---0------------0-----------
----------------------------------------------------------------
-----------------------------------------------------------------
---------------------------------------------------------------
in the verse, its just base, and it goes like this
-----------------------------------
-------------------------------------
-333333333--------------------------
------------33333333333-1111111111--
after a while, guitar comes in
-----------------------
----------------------
-5---------------------reapeat that palm mute
-x---------------------
-3----------------------
------------------------
chorus
--------------------------------------
--------------------------------------
-555--444---------------------------
-555--555--7777--33-55---------------
-333--222--7777--33-55------------
-----------5555--11-33-------------

do intro again, then another verse, then back to the chorus
then this is the bridge thing
----------------------------------------
--------------------------------------
--------------------------------------
-555555------------------------------
-333333--222222-333333-555555--------palm mute, 2x
---------000000-111111-333333----------
then...
--------------------------------------------
------------------------------------------------
------------------------------------------------
---------------------------------------------4x
-3333--7777-33---8888--33--555555--33----------
-----------------------------------------------
back to chorus a few times
and thats the song, have fun

OptimusPrime

Submitted by OptimusPrime at Sun 01 Dec, 2002 8:37 am

Author: ?
Composer: ?
Publisher: ?
Language: English

Reactions

CommonCrawl [Bot]

Follow Muzikum