Blink 182

Blink 182
When You Fucked Grandpa Ver 2 (Guitar tab)

Blink 182
When you fucked grandpa
Tabbed by Joe XXADIDAS36XX@AOL.COM

just repeat this over and over again


|------2--------0-------2------0----------------------------------------------------------------------------|
|----------3-------3--------3-------3------3--------3-------5-------2---------2-------3------------------|
|------------------------------------------------0--------------------------0--------------------------------|
|-------------------------------------------------------------------------------------------------------------|
|-------------------------------------------------------------------------------------------------------------|
|-------------------------------------------------------------------------------------------------------------|



uno dos trec cuatro
when you fucked grandpa did he tell you that he loved you
did he hold you till the sun did rise
and did he look into your eyes
and ask you to filade him
and stick a finger or two in his ass

when you fucked grandpa did he kiss you soft and tender
did he tie you hands behind your head
and was it on your mothers bed and
this is fucking stupid man
I cant believe you would have sex with your own grandfather
I mean you guys are related
what's he going to do
take out his false teeth and just leave them on the side of your bed
man he'd like to fuck you in the bottom
and grandma would come in and watch and masturbate
and cum all over the place
and this is stupid
I hate you all I'm not even going to have sex with my mom tonight man
this is stupid
I hate you







the chorus is a little different but still easy just repeat this


|--------------------------------------------------------------------------------------------------------------|
|-----3-------3------3------3------2------2------2------2--------------------------------------------------|
|---------0------0-------0------0------0------0------0-----------------------------------------------------|
|--------------------------------------------------------------------------------------------------------------|
|--------------------------------------------------------------------------------------------------------------|
|--------------------------------------------------------------------------------------------------------------|

he seams like a total asshole
grandpa is a total fucking asshole
who would ever want a dirty greasy finger in his ass

OptimusPrime

Submitted by OptimusPrime at Sun 01 Dec, 2002 8:37 am

Author: ?
Composer: ?
Publisher: ?
Language: English

Reactions

CommonCrawl [Bot]

Follow Muzikum