Blink 182

Blink 182
Untitled Live (Guitar tab)

Author/Artist: Blink 182
Title: Untitled(Live)
Transcribed by: Corby Allred


Clean:

Verse:
----------------------------------|-------------------------------------------
----------------------------------|-------------------------------------------
----------------------------------|----Repeat-5-Times-------------------------
-44444---4444444------------------|-------------------------------------------
-22222---2222222---22222---4444444|-------------------------------------------
-------------------00000---2222222|-------------------------------------------

PreChorus:
----------|--------|--------|--------|--------|--------|--------|--------|----
----------|--------|--------|--------|--------|--------|--------|--------|----
----------|9------9|--------|--------|--------|9------9|--------|--------|----
--6------6|9------9|9------9|4------4|6------6|9------9|9------9|4------4|9---
--6------6|7------7|9------9|4------4|6------6|7------7|9------9|4------4|9---
--4------4|--------|7------7|2------2|4------4|--------|7------7|2------2|7---

Distortion:
Intro Riff:
---------------------------------------|--------------------------------------
---------------------------------------|--------------------------------------
--44444444------------------------99999|----Repeat-Twice----------------------
--44444444---6666666---44444444---99999|--------------------------------------
--22222222---6666666---44444444---77766|--------------------------------------
-------------4444444---22222222--------|--------------------------------------

Verse:
------------------------|-----------------------------------------------------
------------------------|-----------------------------------------------------
--44444444--------------|------Repeat-3-Times---------------------------------
--44444444---2222---4444|-----------------------------------------------------
--22222222---2222---4444|-----------------------------------------------------
-------------0000---2222|-----------------------------------------------------

PreChorus:
----------------------------|--------|------------------------|-Replace-last--
----------------------------|--------|------------------------|---with-this---
--------------------44444444|--------|---Repeat-Once----------|---------------
--66666666-22222222-44444444|44444444|------------------------|-----44442222--
--66666666-22222222-22222222|44444444|------------------------|-----44442222--
--44444444-00000000---------|22222222|------------------------|-----22220000--

Interlude:
---------------------------|--------------------------------------------------
---------------------------|--------------------------------------------------
---------------------------|-------Repeat-3-Times-----------------------------
---1-4--1-2-1---1-4--1-2-1-|--------------------------------------------------
-2------------0------------|--------------------------------------------------
---------------------------|--------------------------------------------------

------------------------------|-----------------------------------------------
------------------------------|----Play-this-for-a-while----------------------
------------------------------|-----------------------------------------------
------------------------------|-----------------------------------------------
-2-2-2-2-2-2-2-2-2-2-2-2-2-2-2|-----------------------------------------------
------------------------------|-----------------------------------------------

Outro:
------------------------------------------------------|-----------------------
------------------------------------------------------|-----------------------
-------------------44444444---------------------------|-----------------------
-66666666-22222222-44444444-44444444-66666666-22222222|-----------------------
-66666666-22222222-22222222-44444444-66666666-22222222|-----------------------
-44444444-00000000----------22222222-44444444-00000000|-----------------------

Ending:
------------------------|-------------------|-------------------|-------------
------------------------|-------------------|-------------------|-------------
------------------------|-------------------|-------------------|-------------
-1---2-1-------2-1------|-2-1-------1-------|-2-1-------2-1-----|2-1----------
---------4-2-4-----4-2--|-----4-2-4----4--2-|-----4-2-4-----4-2-|----4-2-4-2--
------------------------|-------------------|-------------------|-------------

OptimusPrime

Submitted by OptimusPrime at Sun 01 Dec, 2002 8:36 am

Author: ?
Composer: ?
Publisher: ?
Language: English

Reactions

CommonCrawl [Bot]

Follow Muzikum