Blink 182

Blink 182
Time (Guitar tab)

-----------------------------------------------------------------------------
TIME- Blink 182
-----------------------------------------------------------------------------


CHORDS

A5 Eii F#ii D5

|--------------------|
|--------------------|
|-------9---10---7---|
|---7---9---10---7---|
|---7---7---9----5---|
|---5----------------|

RIFF 1

|----------------------------------|
|----------------------------------|
|----------------------------------|
|----------------------------------|
|---7---/---14---/---16---/---12---|
|---5---/---12---/---14---/---10---|

RIFF 2

|--555-222-444-222-555-222-444444--|
|--555-333-555-333-555-233-555555--|
|--777-222-444-222-777-222-444444--|
|----------------------------------|
|----------------------------------|
|----------------------------------|

RIFF 3

|-----------------------------------|
|-----------------------------------|
|--------999999-121212121212-777777-|
|-777777-999999-121212121212-777777-|
|-777777-777777-9-9-9-9-9-9--555555-|
|-555555----------------------------|

INTRO: RIFF1 (*2)
RIFF2 (*2)
RIFF3 (*2)
Verse1:A5 Eii F#ii D5
A5 Eii
when the clock trikes two
F#ii D5
there's just so much to do
A5 Eii F#ii D5
and i can't explain what i need

(same chords)
jobs and social groups
hearing the latest news
keepin' your reputation clean

CHORUS:A5 Eii F#II D5
A5 Eii
and i don't want to worry
F#ii D5
about being on time

(same chords)
i see the way you hurry
time runs your life
again

RIFF2 (*2)
RIFF3 (*2)

Verse2: (same chords)
difference between east east
money means so much less
objects aren't important to buy

i wish a clock
could often just be stopped
and then we'd look into the time

repeat CHORUS

RIFF3 (*4)

I think that is right.
If you have a best version of this song please send me it to nedpod@hotmail.com

OptimusPrime

Submitted by OptimusPrime at Sun 01 Dec, 2002 8:36 am

Author: ?
Composer: ?
Publisher: ?
Language: English

Reactions

CommonCrawl [Bot]

Follow Muzikum