Blink 182

Blink 182
Wont Be Home For Christmas (Guitar tab)

i dint like the tabs that was on here so heres a better one


intro:
|-------------------------------------------------------------------
|-------------------------------------------------------------------
|-------0-0-4-0-5-0-4-0------0-4-0-5-0-4-0----0-4-0-5-0-4-2-0-------
|-------------------------------------------------------------------
|-------------------------------------------3-----------------------
|------------------------0------------------------------------------


|------------------------------------------------------------------
|------------------------------------------------------------------
|--0-4-0-0-0-------------------------------------------------------
|0-----------------------------------------------------------------x2
|------------------------------------------------------------------
|------------------------------------------------------------------

chords used
|-----------
|-----------
|-------5--7
|-5--2--5--7
|-5--2--3--5
|-3--0------
play those chords ...most of the time in that order...
listen to the song to know the rythem....

OptimusPrime

Submitted by OptimusPrime at Sun 01 Dec, 2002 8:36 am

Author: ?
Composer: ?
Publisher: ?
Language: English

Reactions

CommonCrawl [Bot]

Follow Muzikum