Blink 182

Blink 182
Stay Together For The Kids Ver 7 (Guitar tab)

Author/Artist: Blink 182
Title: Stay Together For The Kids
Album: Take Off Your Pants And Jacket
Transcribed by: mU iS cO o
Email: muhuac@hotmail.com

------------------------------------------------------------------------------
------------------------------------------------------------------------------
-------2---------------2------------------------------------------------------
---0-----0---4-----0-----0---4-----0---4-0---5-0---2---4-5-4-2----------------
-5---5-----5---5-4---4-----4---5-2---2-----2-----0---0---------5--------------
------------------------------------------------------------------------------
play 2 times

------------------------------------------------------------------------------
------------------------------------------------------------------------------
-----7-----7-----7-----7-----7-----7-----7-----7-----7-----7-----7-----7------
-----7-----7-----7-----7-----7-----7-----7-----7-----7-----7-----7-----7------
-5-5---5-5---5-5---5-5--------------------------------------------------------
-------------------------7-7---7-7---7-7---7-7---5-5---5-5---5-5---5-5--------
play this line and line below 2 times

------------------------------------------------------------------------------
------------------------------------------------------------------------------
-----9-----9-----6-----6------------------------------------------------------
-----7-----7-----7-----7------------------------------------------------------
------------------------------------------------------------------------------
-5-5---5-5---5-5---5-5--------------------------------------------------------


------------------------------------------------------------------|-----------
------------------------------------------------------------------|-----------
------------------------------------------------------------------|-7---------
--5-5-5-5-5-5-5-5-5-5-5-5-5-5-5-5-4-4-4-4-4-4-4-4-4-4-4-4-4-4-4-4-|-7---------
--5-5-5-5-5-5-5-5-5-5-5-5-5-5-5-5-4-4-4-4-4-4-4-4-4-4-4-4-4-4-4-4-|-5---------
--3-3-3-3-3-3-3-3-3-3-3-3-3-3-3-3-2-2-2-2-2-2-2-2-2-2-2-2-2-2-0-2-|-----------
play twice, then | this

------------------------------------------------------------------------------
------------------------------------------------------------------------------
------------------------------------------------------------------------------
------------------------------------------------------------------------------
------------------------------------------------------------------------------
------------------------------------------------------------------------------
PLAY ALL OF THIS OVER AGAIN!!

-2-----0-------------------------------------|--------------------------------
-3---3-2-------------------------------------|--------------------------------
-2---0-2-------------------------------------|------7-----7-------------------
-0---2-2-------------------------------------|------7-----7-------------------
-------0-------------------------------------|--5-5---5-5---------------------
---------------------------------------------|--------------------------------
(play 4x) lots of piano but i think theres this too. etc..

------------------------------------------------------------------------------
------------------------------------------------------------------------------
------------------------------------------------------------------------------
-5-5-5-5-5-5-5-5-5-5-5-5-5-5-5-5-4-4-4-4-4-4-4-4-4-4-4-4-4-4-4-4--------------
-5-5-5-5-5-5-5-5-5-5-5-5-5-5-5-5-4-4-4-4-4-4-4-4-4-4-4-4-4-4-4-4--------------
-3-3-3-3-3-3-3-3-3-3-3-3-3-3-3-3-2-2-2-2-2-2-2-2-2-2-2-2-2-2-0-2--------------
play until fadeout (about 12 times)

------------------------------------|-------0-2-------------------------------
---3--------------------------------|---3-3-----3-----------------------------
-2----------------------------------|-2---------------------------------------
------------------------------------|-----------------------------------------
------------------------------------|-----------------------------------------
------------------------------------|-----------------------------------------
play this during the last part and sometimes this

------------------------------------------------------------------------------
------------------------------------------------------------------------------
------------------------------------------------------------------------------
------------------------------------------------------------------------------
------------------------------------------------------------------------------
------------------------------------------------------------------------------
figure out the piano part at your own risk!!! umm yeah, that's it.

OptimusPrime

Submitted by OptimusPrime at Sun 01 Dec, 2002 8:36 am

Author: ?
Composer: ?
Publisher: ?
Language: English

Reactions

1 post

CommonCrawl [Bot]
Anonymous
Wed 04 Jun, 2003 11:46 pm
i love kat zambetti
1 post • Page 1 of 1

Follow Muzikum