Blink 182

Blink 182
First Date Ver 3 (Guitar tab)

Band: Blink 182
Song: First Date
Album: Take off Your Pants and Jacket
Tabbed: Brandon Miller (SiN456b@aol.com)


Bass Intro (4x)
E----------------------------------------------------
B----------------------------------------------------
G----------------------------------------------------
D--5-5-5-5-5-5-5-5-----------------------------------
A--3-3-3-3-3-3-3-3---5-5-5-5---3-3-3-3---------------
E--------------------3-3-3-3---1-1-1-1---------------

Chorus (2x)
E----------------------------------------------------
B----------------------------------------------------
G--5-------------------------------------------------
D--5-(3x)--5--------7-7-7-7---3-3---5-5--------------
A--3-------5-(3x)---7-7-7-7---3-3---5-5--------------
E----------3--------5-5-5-5---1-1---3-3--------------

Second Chorus (4x)
E----------------------------------------
B----------------------------------------
G--5-------------------------------------
D--5-(8x)---5---------7---------3--------
A--3--------5-(8x)----7-(8x)----3-(8x)---
E-----------3---------5---------1--------


Order:
Bass Intro
Chorus
Bass Intro
Chorus
ect.
(the song repeats itself)

OptimusPrime

Submitted by OptimusPrime at Sun 01 Dec, 2002 8:36 am

Author: ?
Composer: ?
Publisher: ?
Language: English

Reactions

CommonCrawl [Bot]

Follow Muzikum