Blink 182

Blink 182
Anthem Part 2 Ver 5 (Guitar tab)

intro

guitar 1

E---3--3--1--1--0--0--1--1--

B----1--1--1--1---1--1--1----

guitar 2

G--5--5--5--5-

D--5--5--5--5

A--3--3--3--3

E----------------

guitar 3

D-------2\3------2------2\3-----2------2\3------2--------0-----0

A--3-3------3-3----3-3-----3-3---3-3------3-3-----3-3---3-3
A string is Palm Muted


G --9--10--9--5--7--9--10--9--5--7--9--10--9--5--7--9--10--5

D---x---x----x---x--x----x---x--x--x--x----x---x---x---x--x--x

A --7---8--7--3--5--7---8--7---3--5--7---8--7--3--5--7---8--3

verse 1:

C, A, F

Break:

D-----2---------------------------

A--0-----0-------5--------------3

E---------------3------3-----1-----

Chorus:

high E, high F, C, G

this is the first song off of "Take off your pants and Jacket" and uhhh yeah

OptimusPrime

Submitted by OptimusPrime at Sun 01 Dec, 2002 8:36 am

Author: ?
Composer: ?
Publisher: ?
Language: English

Reactions

CommonCrawl [Bot]

Follow Muzikum