Blink 182

Blink 182
Fuck A Dog Ver 3 (Guitar tab)

This is from the new album track number 16. It is very simple
but a lot of fun to play maybe for some kids outside a school.

You can play this song two ways

1.
G G C D
E-----------------------------------------
b-------3------3------3----3--------------
G-------0------0------0----2--------------
D-----0-----0-------0-----0---------------
A-----------------3-----------------------
E----3------3-----------------------------

2.

E-----------------------------------------
b-------------------------------------
G-------------------------------------
D----------------5---5---7--7------------
A----5---5---5-3---3---5--5---------------------
E--3---3---3-------------------------------

OptimusPrime

Submitted by OptimusPrime at Sun 01 Dec, 2002 8:36 am

Author: ?
Composer: ?
Publisher: ?
Language: English

Reactions

CommonCrawl [Bot]

Follow Muzikum