Blink 182

Blink 182
Dont Tell Me That Its Over Ver 2 (Guitar tab)

____________________________________________________
caoimhaoinsutton@hotmail.com (is my address) PLEK

http://communities.msn.com/KevsMind (is my website)
_____________________________________________________
ps copy to notepad and ALWAYS use (ANDALE MONO)font



+ BLINK 182----------------------------| DONT TELL ME THAT ITS OVER




***INTRO***
E--------------------------------------------------
B--------------------------------------------------
G-5---------5-5------------5-----------5-5---------
D-5---------5-5------------5-----------5-5---------
A-3---------3-3------------3-----------3-3---------
E--------------------------------------------------
(C) (C) (C) (C)

*B* G--------------------------------------------------
*A* D--------------------------------------------------
*S* A---3-3-3-3-3-3-3-3-------------------------------- (X4)
*S* E----------------------3-3-3-3-------1-1-1-1-------
(C) (G) (F)

[1] I hear the phone..it rings so violently
Just leave my room..cant breathe since she left me
I will admit I hate those things I said
Girls always cry cos theyl never admit they did



***BRIDGE***(HOLD ON!)
E--------------------------------------------------
B--------------------------------------------------
G---5-5-5-5-5-5-5-5-5-5-5-5-5-5-5-5-5-5------------
D---5-5-5-5-5-5-5-5-5-5-5-5-5-5-5-5-5-5------------
A---3-3-3-3-3-3-3-3-3-3-3-3-3-3-3-3-3-3------------
E--------------------------------------------------


*B* G--------------------------------------------------
*A* D--------------------------------------------------
*S* A---3-3-3-3-3-3-3-3-------------------------------- (X4)
*S* E----------------------3-3-3-3-------1-1-1-1-------


Hold On..Hold On..Hold On..Hold On

____________________________________________________________
**CHORUS** |
E-------------------------------------------------- |
B-------------------------------------------------- |
G--5-5-5-5-5-5-5-5--------------------------------- |
D--5-5-5-5-5-5-5-5---5-5-5-5-----3-3-3-3----------- |
A--3-3-3-3-3-3-3-3---5-5-5-5-----3-3-3-3----------- |
E--------------------3-3-3-3-----1-1-1-1----------- |
(C) (G) (F) |
|
*B* G-------------------------------------------------- |
*A* D-------------------------------------------------- |
*S* A---3-3-3-3-3-3-3-3-------------------------------- (X4)
*S* E----------------------3-3-3-3-------1-1-1-1------- |
|
|
**CHORUS** |
Dont tell me that its over..........Im not used to this temptation
And When you come back running......Theres no use for explanation
I think things arent too hopeful....Even with my expert knowledge
Most girls do mean trouble..........Because they are rarely honest
|
___________________________________________________________|


***interlude***
[g] E-----|---------------------- ----|---------------------|
[u] B-----|---------------------- ----|---------------------|
[i] G-----|----------------------- ----|---------------------|
1rst [t] D-----|--2--0--2------2------- OR ----|----0----------------|
[a] A---3-|-----------3-------3--- ----|--7----7-----7-------|
[r] E-----|----------------------- --8-|----------8------8---|

[g] E---------------------------------------------------
[u] B---------------------------------------------------
[i] G---5-5-5-5-5-5-5-5---------------------------------
2nd [t] D---5-5-5-5-5-5-5-5----3-3-3-3-----5-5-5-5----------
[a] A---3-3-3-3-3-3-3-3----3-3-3-3-----5-5-5-5----------
[r] E----------------------1-1-1-1-----3-3-3-3----------
(C) (F) (G)



******VERSE 2******
E--------------------------------------------------------
B---------------------(all palm mute)--------------------
G---5-(5-5-5-5-5-5-5)--------------------------------------
D---5-(5-5-5-5-5-5-5)--5-(5-5-5-5)----3-(3-3-3-3)----------------
A---3-(3-3-3-3-3-3-3)--5-(5-5-5-5)----3-(3-3-3-3)----------------
E----------------------3-(3-3-3-3)----1-(1-1-1-1)----------------
(C) (G) (F)

[2] Whats with the jokes or the routines they play
Screw with my head never give in till they get their way
Guys like like to run.........Chicks love to yell you see
Guys hate to fight............Girls think its therapy



******INSTRUMENTAL******
E--------------------------------------------------------
B--------------------------------------------------------
G---(5-5-5-5-5-5-5)--------------------------------------
D---(5-5-5-5-5-5-5)----(5-5-5-5)---(7-7)----(3-3-3-3)----
A---(3-3-3-3-3-3-3)----(5-5-5-5)---(7-7)----(3-3-3-3)----
E----------------------(3-3-3-3)---(5-5)----(1-1-1-1)----
(C) (G) (A) (F)


___________________________
June 10th 2001 |
(Kev 16 Male) IRISH |
My tabs are always right |
____________________________|

OptimusPrime

Submitted by OptimusPrime at Sun 01 Dec, 2002 8:36 am

Author: ?
Composer: ?
Publisher: ?
Language: English

Reactions

CommonCrawl [Bot]

Follow Muzikum