Blink 182

Blink 182
Adams Song Live Ver 5 (Guitar tab)

This is 100% accurate

INTRO:

E---------------------------------------------------------------
B---------------------------------------------------------------
G---------------------------------------------------------------
D---4-0----4-0----4-0----4-0----4-0----4-0----4-0----4-0--------
A-2------2------0------0----------------------------------------
E-----------------------------3------3------2------2------------

THIS IS PART OF THE MIDDLE OF THE SONG, I COULDNT GET THE INTRO
TAB OF THE WORDS
E---------------------------------------------------------------
B---------------------------------------------------------------
G----0------0------0------0-------------------------------------
D------3------3------2------2-----------------------------------
A--3------3------3------3---------------------------------------
E---------------------------------------------------------------


I NEVER THOUGHT ID DIE ALONE I LAUGHED THE LOUDEST WHOD OF KNOWN
I TRACED THE CORD BACK TO THE WALL KNOW......

OptimusPrime

Submitted by OptimusPrime at Sun 01 Dec, 2002 8:35 am

Author: ?
Composer: ?
Publisher: ?
Language: English

Reactions

CommonCrawl [Bot]

Follow Muzikum