Blink 182

Blink 182
Adams Song Ver 4 (Guitar tab)

Author/Artist: Blink 182
Title: Adam's Song
Album: Enema Of State
Transcribed by: Salvatore Span�
Email: salspan17@virgilio.it

To play this song you must change your tuning
the new tuning will be : d
a
f
c
g
d

O.k. now the intro

------------------------------------------------------------------------------
------------------------------------------------------------------------------
------------------------------------------------------------------------------
-----4--0------4--0-----4--0-----4--0-----4--0------4--0-----4--0-----4--0----
--2---------2--------0--------0-----------------------------------------------
---------------------------------------2--------2---------0--------2----------


------------------------------------------------------------------------------
------------------------------------------------------------------------------
------------------------------------------------------------------------------
-----4--0------4--0-----4--0-----4--0-----4--0-----4--0------4--0------4--0---
--2--------2---------0--------0-----------------------------------------------
---------------------------------------2--------2---------0--------2----------
Verse (x4 Palm mute)

------------------------------------------------------------------------------
------------------------------------------------------------------------------
--5-5-5-5-5-5-5-5-------------------------------------------------------------
--5-5-5-5-5-5-5-5--5-5-5-5-5-5-5-5-9-9-9-9-9-9-9-9-5-5-5-5-5-5-5-5------------
--3-3-3-3-3-3-3-3--5-5-5-5-5-5-5-5-9-9-9-9-9-9-9-9-5-5-5-5-5-5-5-5------------
-------------------3-3-3-3-3-3-3-3-7-7-7-7-7-7-7-7-3-3-3-3-3-3-3-3------------
Interlude (x4)

------------------------------------------------------------------------------
------------------------------------------------------------------------------
-----2--------2--------4--------4---------------------------------------------
--------5--------5--------5--------5-----4--------4--------4--------4---------
--5--------5--------7--------7--------2-----5--2-----5--------5--------5------
--------------------------------------------------------5--------5------------
Prechorus with clean guitar (x2)

------------------------------------------------------------------------------
------------------------------------------------------------------------------
--7-7-7-7-7-7-7-7-9-9-9-9-9-9-9-9---------------------------------------------
----------------------------------9-9-9-9-9-9-9-9-5-5-5-5-5-5-5-5-------------
--5-5-5-5-5-5-5-5-7-7-7-7-7-7-7-7---------------------------------------------
----------------------------------7-7-7-7-7-7-7-7-3-3-3-3-3-3-3-3-------------
Then chorus with fat distorsion (x2)

------------------------------------------------------------------------------
------------------------------------------------------------------------------
--7-7-7-7-7-7-7-7-9-9-9-9-9-9-9-9---------------------------------------------
----------------------------------9-9-9-9-9-9-9-9-5-5-5-5-5-5-5-5-------------
--5-5-5-5-5-5-5-5-7-7-7-7-7-7-7-7---------------------------------------------
----------------------------------7-7-7-7-7-7-7-7-3-3-3-3-3-3-3-3-------------
then repeat all, ahhh i've forgotten the piano part that is like this

------------------------------------------------------------------------------
------------------------------------------------------------------------------
------5----5----5----5--------------------------------------------------------
----5----5----5----5----------------------------------------------------------
------------------------------------------------------------------------------
------------------------------------------------------------------------------

OptimusPrime

Submitted by OptimusPrime at Sun 01 Dec, 2002 8:35 am

Author: ?
Composer: ?
Publisher: ?
Language: English

Reactions

2 posts

CommonCrawl [Bot]
toxic waste
Mon 30 Oct, 2006 5:03 pm
this is not correct.
get it right next time.
geobeid
Tue 03 Jan, 2006 3:30 am
R U SURE THAT IT'S ADAM'S SONG? I SOUNDS LIKE IM HITTING MY GUITAR MAN.
AS A REQUEST: PLEASE FIRST HAVE LESSONS AND THEN POST TABS. TKS
2 posts • Page 1 of 1

Follow Muzikum