Blink 182

Blink 182
Wendy Clear Ver 2 (Guitar tab)

--------------------------------------------------------
Wendy Clear - Blink 182
---------------------------------------------------------
Tabbed by: Lithium tabz (Lithium_tabZ@hotmail.com)
Riff 1
e:---------------------------------------------------------------
B:---------------------------------------------------------------
G:---------------------------------------------------------------
D:-------5------0-3-2--------------------------------------------
A:----3------3---------------------------------------------------
E:---------------------------------------------------------------
Riff 2
e:---------------------------------------------------------------
B:---------------------------------------------------------------
G:---------------------------------------------------------------
D:-5555555555555555----------------------------------------------
A:-3333333333333333-5-333333333-7777-333-5-----------------------
E:------------------3-111111111-5555-111-3-----------------------
Riff 3
e:---------------------------------------------------------------
B:---------------------------------------------------------------
G:---------------------------------------------------------------
D:-----------55555555--------------------------------------------
A:-5555-3333-33333333--------------------------------------------
E:-3333-1111-----------------------------------------------------
Riff 4
e:---------------------------------------------------------------
B:---------------------------------------------------------------
G:---------------------------------------------------------------
D:-----------5555------------------------------------------------
A:-7777-3333-3333-555555555--------------------------------------
E:-5555-1111------333333333--------------------------------------
Riff 5
e:---------------------------------------------------------------
B:---------------------------------------------------------------
G:---------------------------------------------------------------
D:---------55----------------------------------------------------
A:---77-33-33-55-------------------------------------------------
E:---55-11----33-------------------------------------------------
Riff 6
e:---------------------------------------------------------------
B:---------------------------------------------------------------
G:---------------------------------------------------------------
D:-55555555------------------------------------------------------
A:-33333333------------------------------------------------------
E:---------------------------------------------------------------
Riff 7
e:---------------------------------------------------------------
B:---------------------------------------------------------------
G:---------------------------------------------------------------
D:-----------55555555--------------------------------------------
A:-5555-3333-33333333--------------------------------------------
E:-3333-1111-----------------------------------------------------
Riff 8
e:---------------------------------------------------------------
B:---------------------------------------------------------------
G:---------------------------------------------------------------
D:----------5----------------------------------------------------
A:-5----3---3----------------------------------------------------
E:-3----1--------------------------------------------------------

Order:
Riff 1 x8
Riff 2 x2
Riff 3 x2
Riff 4 x2
Riff 1 x6
Don't play until the 2nd verse is over
Riff 3 x2
Riff 4 x2
Riff 5 x2 (palm mute)
Riff 6 x1
Riff 5 x2 (palm mute)
Riff 1 x8
Riff 3 x2 (clean)
Riff 4 x2 (clean)
Riff 6 x1
Riff 7 x2

OptimusPrime

Submitted by OptimusPrime at Sun 01 Dec, 2002 8:35 am

Author: ?
Composer: ?
Publisher: ?

Reactions

CommonCrawl [Bot]

Follow Muzikum