Blink 182

Blink 182
Story Of A Lonely Guy Ver 2 (Guitar tab)

Blink 182
Story Of A Lonely Guy
Take Off Your Pants And Jacket
Tabbed By James Low whatisaturnip@yahoo.co.uk
Standard Tuning (EADGBE)

---------5---7----------5---7---5-------------------
-----5--------------5-------------------------------
----------------------------------------------------
----------------------------------------------------
----------------------------------------------------
----------------------------------------------------

----------------------------------------------------
----------------------------------------------------
----------------------------------------------------
--2----4----6----7----------------------------------
--0----2----4----5----------------------------------
----------------------------------------------------

----------------------------------------------------
----------------------------------------------------
----------------------------------------------------
--------7-----------7-----------7-----------7-------
--4--4-----4--4--4-----4--5--5-----5--5--5-----5----
----------------------------------------------------

----------------------------------------------------
----------------------------------------------------
----------------------------------------------------
--------7-----------7-----------7-----------7-------
--0--0-----0--0--0-----0--7--7-----7--7--7-----7----
----------------------------------------------------

----------------------------------------------------
----------------------------------------------------
-------------------9-------7------------------------
---------------7---9---4---7------------------------
---------------7---7---4---5------------------------
--pick-slide---5-------2----------------------------

----------------------------------------------------
----------------------------------------------------
--------------------------------------------------9-
--------7-----------7-----------7-----------7-----9-
--4--4-----4--4--4-----4--5--5-----5--5--5-----5--7-

OptimusPrime

Submitted by OptimusPrime at Sun 01 Dec, 2002 8:35 am

Author: ?
Composer: ?
Publisher: ?
Language: English

Reactions

CommonCrawl [Bot]

Follow Muzikum