Blink 182

Blink 182
What Went Wrong Ver 6 (Guitar tab)

Title: "What Went Wrong" aka "You Fucked Up My Life"
Artist: Blink 182
Album: Take Off Your Pants and Jacket
Tabbed by: Daniel Parmenter (crazed_ferret@hotmail.com)

I've seen several versions of this tab and most of them were inaccurate in one way or another, so I had a go at it myself. AFAIK this tab is 100% correct, or at least sounds correct. Oh, and thanks to Josh Tavares (joshtavares@hotmail.com) for the clarinet solo bit. Any questions, comments, etc. pls mail me at the above address.


intro (guitar 1)
e|---------------------------------------------------------------------------|
B|----0--------0-------------------------------------------------------------|
G|-------2--------2----------------------------------------------------------|
D|--2--------2---------------------------------------------------------------|
A|---------------------------------------------------------------------------|
E|---------------------------------------------------------------------------|

intro (guitar 2)
e|---------------------------------------------------------------------------|
B|---------------------------------------------------------------------------|
G|----------------------777777-----------------------------------------------|
D|--7777777777--444444--777777-----------------------------------------------|
A|--7777777777--444444--555555-----------------------------------------------|
E|--5555555555--222222-------------------------------------------------------|


verse (guitar 2 only)
e|---------------------------------------------------------------------------|
B|---------------------------------------------------------------------------|
G|--------------------------9999999999--7777777777---------------------------|
D|--7777777777--4444444444--9999999999--7777777777---------------------------|
A|--7777777777--4444444444--7777777777--5555555555---------------------------|
E|--5555555555--2222222222---------------------------------------------------|


chorus (guitar 1: play each note with vibrato)
e|---------------------------------------------------------------------------|
B|---------------------------------------------------------------------------|
G|---------------------------------------------------------------------------|
D|----------------12-----------------12--------------------------------------|
A|--12---11---12------12---11---12-------------------------------------------|
E|---------------------------------------------------------------------------|

chorus (guitar 2)
e|---------------------------------------------------------------------------|
B|---------------------------------------------------------------------------|
G|--------------------------------------7777777777---------------------------|
D|--7777777777--7777777777--4444444444--7777777777---------------------------|
A|--7777777777--7777777777--4444444444--5555555555---------------------------|
E|--5555555555--4444444444--2222222222---------------------------------------|


repeat verse (as above)
repeat chorus (as above)


solo (guitar 1)
e|------0---------------0-----------------0--------------0-------------------|
B|--------------2---------------2-----------------2--------------2-----------|
G|----2---2---2---2---2---2---2---2-----2---2---2---2--2---2---2---2---------|
D|------------------------------------0-------0------0-------0---------------|
A|---------------------------------------------------------------------------|
E|--2-------2-------2-------2------------------------------------------------|

e|------0---------------0----------------------------------------------------|
B|--------------2---------------2-------2-----2----2-2222222222--------------|
G|----2---2---2---2---2---2---2---2---2-----2--------2222222222--------------|
D|----------------------------------0-----0-----0----0000000000--------------|
A|--0-------0-------2-------2------------------------------------------------|
E|---------------------------------------------------------------------------|
(strummed Asus4 at the end played by guitar 2)

bridge (guitar 2) (x3) |
e|----------------------------|----------------------------------------------|
B|----------------------------|----------------------------------------------|
G|---------------777777777777-|----------------------------------------------|
D|--77777777777--777777777777-|----7777777777777777777777777777--------------|
A|--77777777777--555555555555-|----7777777777777777777777777777--------------|
E|--55555555555---------------|----5555555555555555555555555555--------------|

e|------------------------------------------------|
B|------------------------------------------------|
G|---------------------99999999999----------------|
D|--22222222222222222--99999999999----------------|
A|--22222222222222222--77777777777----------------|
E|--00000000000000000-----------------------------|

bridge (guitar 1)
e|-----------------------------------------------------------|
b|-----------------------------------------------------------|
g|-----------------------------------------------------------|
d|------------------------11--12--14-------------------11----|
a|-12---11--12---14---12--------------12---11--12--14--------|
E|-----------------------------------------------------------|

e|--------------------------------|
b|--------------------------------|
g|--------------------------------|
d|--------------------------------|
a|--12------------14-----12-------|
E|--------12----------------------|

outro (as intro; note lyrics change)

------
Lyrics
------

I'm sick of always hearing
All those sad songs on the radio
All day it is there to remind
An over sensitive guy that he's lost and alone, yeah

I hate our favorite restaurant,
Our favorite movie, our favorite show
We would stay up all through the night
We would laugh and get high, and never answer the phone

I can't forgive, can't forget
Can't give in, what went wrong?
Cause you said this was right
You fucked up my life

I'm sick of always hearing
Sappy love songs on the radio
This place, it's fucking cursed and it's plagued
And I can never escape when my heart it explodes

I can't forgive, can't forget
Can't give in, what went wrong?
Cos you said this was right
You fucked up my life

I'm kicking out fiercely at the word around me
What went wrong?
I'm kicking out fiercely at the word around me
What went wrong?
I'm kicking out fiercely at the word around me
What went wrong?
I'm kicking out fiercely at the word around me
What went wrong?
I'm kicking

OptimusPrime

Submitted by OptimusPrime at Sun 01 Dec, 2002 8:35 am

Author: ?
Composer: ?
Publisher: ?
Language: English

Reactions

CommonCrawl [Bot]

Follow Muzikum