Blink 182

Blink 182
Happy Holidays You Bastard23 (Guitar tab)

this is very accurate,i got it out of a guitar book e-mail me with mistakes. you can work out strumming

--------------------------------------------------
--------------------------------------------------
---4--4----4-4-4---4---------------------------------
---4--4----4-4-4---4--4---4----4----4----------------
---2--2----2-2-2---2--4---4----4----4----------------
----------------------2---2----2----2----------------

------------------------------------------
------------------------------------------
------------------------------------------
-6---6-------6----6--------2---2-----2----2-------
-6---6-------6----6--------2---2-----2----2-------
-4---4-------4----4--------0---0-----0----0-------


----------------------------------------------------
----------------------------------------------------
--4-------4-------------------------------------------
--4-------4---4-----------------------4---4--4---------
--2-------2---4-------------2---------4---4--4-------------
--------------2-------------0---------2---2--2---------

-------------------------------------------------------
-------------------------------------------------------
-4---4---------4------------------------------------------
-4---4---------4-----4----4------4---------------------------
-2---2---------2-----4----4------4----2--2----2---2--2---2---------
---------------------2----2------2----0--0----0---0--0---0------

--------------------------------------------------------------
--------------------------------------------------------------
-4----4--------4--------------------------------------------------
-4----4--------4-----4---4--------4-----------------4---4---------4-----
-2----2--------2-----4---4--------4-----2-----------4---4---------4-----
---------------------2---2--------2-----0-----------2---2---------2

-------------------------------------------------------------
-------------------------------------------------------------
-------------------------------------------------------------
------------------------------------------------4---------------4---
-2----2----------2------4------4-------0--------4---------------4---

OptimusPrime

Submitted by OptimusPrime at Sun 01 Dec, 2002 8:35 am

Author: ?
Composer: ?
Publisher: ?
Language: English

Reactions

CommonCrawl [Bot]

Follow Muzikum