Blink 182

Blink 182
Pathetic Intro (Guitar tab)

blink182
pathetic (intro)


e--1-3-0--1-3-0--1-3-0-------1-3-0--1-3-0--1-3-0--------1-3-0--1-3-0--1-3-0--------
B----------------------1-1-1---------------------1-1-1----------------------1-1-1--
G----------------------------------------------------------------------------------
D----------------------------------------------------------------------------------
A----------------------------------------------------------------------------------
E----------------------------------------------------------------------------------

e--1-3-0--1-3-0--1-3-0-------1-3-0--1-3-0--1-3-0-------
B----------------------1-1-1---------------------1-1-1-
G------------------------------------------------------
D------------------------------------------------------
A------------------------------------------------------
E------------------------------------------------------

This tab is 100% correct all the others are wrong listen to the and u will find out that im right

OptimusPrime

Submitted by OptimusPrime at Sun 01 Dec, 2002 8:35 am

Author: ?
Composer: ?
Publisher: ?
Language: English

Reactions

CommonCrawl [Bot]

Follow Muzikum