Blink 182

Blink 182
Aliens Exist Ver 2 (Guitar tab)

Title: Aliens Exist
Artist:Blink 182
date:8-13-17-00
Tabbed by Allen



here is a very over looked song by blink 182 this song really
kicked
booty live.by the way the other aliens exist tab is wrong.

e--------------------------------------------------------
b--------------------------------------------------------
g--------------------------------------------------------
d-----4-4-4-4-4-4-4-4-4-4-4-4-4-4-4-4--------------------
a-----2-2-2-2-2-2-2-2-2-2-2-2-2-2-2-2-2let ring----------
e--------------------------------------------------------
(pm............................) hey mom........


this is the part before the verse

-----------------------------------------------------(fig 1)
-----------------------------------------------------
-4-4-4-4-4-4-4---------------------------------------
-4-4-4-4-4-4-4-2-2-2-2-2-6-6-6-6-6-6-2-2-2-2-2-------X 2
-2-2-2-2-2-2-2-2-2-2-2-2-6-6-6-6-6-6-2-2-2-2-2-------
---------------0-0-0-0-0-4-4-4-4-4-4-0-0-0-0-0-------

then play that thing palm muted during the verse except
for the 3rd time but otherwise 4 times this is what you
do on the third time (below)


---------------------------------------------------------------(fig 2)
---------------------------------------------------------------
---------------------------------------------------------------
4-4-4-4-4-4-4-4-6-6-6-6-6-6-6-6--------------------------------
2-2-2-2-2-2-2-2-4-4-4-4-4-4-4-4-6-6-6-6-6-6-6-6-2-2-2-2-2-2-2-2
--------------------------------4-4-4-4-4-4-4-4-0-0-0-0-0-0-0-0


---------------------------------------------------------(fig 3)
---------------------------------------------------------
4-4-4-4-4-4-4-----------------4-4-4-4-4-4-4-4-4-4--------
4-4-4-4-4-4-44-4-4-4-4-4-4-4-44-4-4-4-4-4-4-4-4-44-4-4-4-
2-2-2-2-2-2-24-4-4-4-4-4-4-4-42-2-2-2-2-2-2-2-2-24-4-4-4-
-------------2-2-2-2-2-2-2-2-2-------------------2-2-2-2-etc....

up, all night long and theres something very wrong


-----------------------------------------------------(fig 4)
-----------------------------------------------------
-----------------------------------------------------
-1-1---1-1---1-1---1-1---2-2---2-2---2-2---2-2-------
-----2-----2-----2-----2-----2-----2-----2-----2-----X 2
-----------------------------------------------------

and i know it must be late..............


-----------------------------------------------------(fig 5)
-----------------------------------------------------
-----------------------------------------------------
-----------------------------------------------------
---------2-------------------------------------------
-2---0-------2---0-----------------------------------

im not like you guys im not like you

now go back to fig 1 and do everything in order until you
get back to fig 5 and go on to the next part


--------------------------------------------------(fig 6 )
--------------------------------------------------
-4-4-4-4-4-4-4-4-4-4-4-4-4-4-4-4-4-4-4-4-4-4-4-4--
-4-4-4-4-4-4-4-4-4-4-4-4-4-4-4-4-4-4-4-4-4-4-4-4--
-2-2-2-2-2-2-2-2-2-2-2-2-2-2-2-2-2-2-2-2-2-2-2-2--
--------------------------------------------------ETC...

-----------------------------------------------------(fig 7)
-----------------------------------------------------
--8-8-8-8-8-8-6-6-6-6-6-6-9-9-9-9-9-9-8-8-8-8-8-8----
--x-x-x-x-x-x-x-x-x-x-x-x-x-x-x-x-x-x-x-x-x-x-x-x----
--6-6-6-6-6-6-4-4-4-4-4-4-7-7-7-7-7-7-6-6-6-6-6-6----
-----------------------------------------------------

-----------------------------------------------------(fig 8)
-----------------------------------------------------
------------------------------------4-4--6-6---------
-6-------------4--------2-----------4-4--6-6---------
-6-------------4--------2-----------2-2--4-4---------
-4-etc---------2--etc---0----------------------------

dark and scary ordinary explanation information

(then play fig 7 during thes lyrics)
nice to know ya paranoia wheres my mother biofather

then play fig 3, fig 4 and then fig 5 and its over

questions comments email me at almno10@cs.com

OptimusPrime

Submitted by OptimusPrime at Sun 01 Dec, 2002 8:35 am

Author: ?
Composer: ?
Publisher: ?
Language: English

Reactions

CommonCrawl [Bot]

Follow Muzikum