Blink 182
Dont Tell Me Its Over (Guitar tab)

-------------------------------------------------------------------------------
Don't Tell Me That it's Over - Blink 182
-------------------------------------------------------------------------------


Tabbed By: Sean Scott (Punkrckr183@cs.com0
Artist: Blink 182
Album: Take Off Your Pants and Jacket (Green)
Song: Dont Tell Me That its Over
Standard Tuning: EADGBE

VERSE 1
I hear the phone it rings so violently
E----------------------------------------------------------
B----------------------------------------------------------
G-5--------------------------------------------------------
D-5--let-ring----------------------------------------------
A-3--------------------------------------------------------
E----------------------------------------------------------

Can't leave my room, can't breathe since she left me
E----------------------------------------------------------
B----------------------------------------------------------
G-5-5------------------------------------------------------
D-5-5------------------------------------------------------
A-3-3------------------------------------------------------
E----------------------------------------------------------

I will admit, I hate those things I said
E----------------------------------------------------------
B----------------------------------------------------------
G-5--------------------------------------------------------
D-5-Let-Ring-----------------------------------------------
A-3--------------------------------------------------------
E----------------------------------------------------------

Girls always cry, guys'll never admit they did
E----------------------------------------------------------
B----------------------------------------------------------
G-5-5------------------------------------------------------
D-5-5------------------------------------------------------
A-3-3------------------------------------------------------
E----------------------------------------------------------

PRE-CHORUS
Hold on Hold on
E-----------------------------------------------------------
B-----------------------------------------------------------
G-5---------------------------------------------------------
D-5-let-ring--------5---------------------------------------X2
A-3-----------------5-let-ring------------------------------
E-------------------3---------------------------------------

CHORUS
Don't tell me that its over Im not used to this temptation
E--------------------------------------------------------------------
B--------------------------------------------------------------------
G-5-5-5-5-5-5-5-5-5-5-5-5-5-5-5-5------------------------------------
D-5-5-5-5-5-5-5-5-5-5-5-5-5-5-5-5-5-5-5-5-5-5-5-5-5-3-3-3-3-3-3-3-3--
A-3-3-3-3-3-3-3-3-3-3-3-3-3-3-3-3-5-5-5-5-5-5-5-5-5-3-3-3-3-3-3-3-3--
E---------------------------------3-3-3-3-3-3-3-3-3-1-1-1-1-1-1-1-1--

And when you come back runnin' theres no use for explanation
E--------------------------------------------------------------------
B--------------------------------------------------------------------
G-5-5-5-5-5-5-5-5-5-5-5-5-5-5-5-5------------------------------------
D-5-5-5-5-5-5-5-5-5-5-5-5-5-5-5-5-5-5-5-5-5-5-5-5-5-3-3-3-3-3-3-3-3--
A-3-3-3-3-3-3-3-3-3-3-3-3-3-3-3-3-5-5-5-5-5-5-5-5-5-3-3-3-3-3-3-3-3--
E---------------------------------3-3-3-3-3-3-3-3-3-1-1-1-1-1-1-1-1--

I think things are too hopeful, even with my expert knowledge
E--------------------------------------------------------------------
B--------------------------------------------------------------------
G-5-5-5-5-5-5-5-5-5-5-5-5-5-5-5-5------------------------------------
D-5-5-5-5-5-5-5-5-5-5-5-5-5-5-5-5-5-5-5-5-5-5-5-5-5-3-3-3-3-3-3-3-3--
A-3-3-3-3-3-3-3-3-3-3-3-3-3-3-3-3-5-5-5-5-5-5-5-5-5-3-3-3-3-3-3-3-3--
E---------------------------------3-3-3-3-3-3-3-3-3-1-1-1-1-1-1-1-1--

Most girls do bring trouble Becasue the are rarely honest
E--------------------------------------------------------------------
B--------------------------------------------------------------------
G-5-5-5-5-5-5-5-5-5-5-5-5-5-5-5-5------------------------------------
D-5-5-5-5-5-5-5-5-5-5-5-5-5-5-5-5-5-5-5-5-5-5-5-5-5-3-3-3-3-3-3-3-3--
A-3-3-3-3-3-3-3-3-3-3-3-3-3-3-3-3-5-5-5-5-5-5-5-5-5-3-3-3-3-3-3-3-3--
E---------------------------------3-3-3-3-3-3-3-3-3-1-1-1-1-1-1-1-1--

BRIDGE

E----------------------------------------------------------
B----------------------------------------------------------
G----------------------------------------------------------
D---2---2-5-3-2-------2---3-2------------------------------
A-3---3-------------3---3-----3----------------------------
E----------------------------------------------------------

VERSE 2
Whats with the jokes, all the routines they play
E--------------------------------------------------------------------
B--------------------------------------------------------------------
G-5------------------------------------------------------------------
D-5-------------------------------5-----------------3----------------
A-3-3-3-3-3-3-3-3-3-3-3-3-3-3-3-3-5-----------------3----------------
E---------------------------------3-3-3-3-3-3-3-3-3-1-1-1-1-1-1-1-1--
P.M.......................... ............... .............

Screw with my head, never cave until they get their way
E--------------------------------------------------------------------
B--------------------------------------------------------------------
G-5------------------------------------------------------------------
D-5-------------------------------5-----------------3----------------
A-3-3-3-3-3-3-3-3-3-3-3-3-3-3-3-3-5-----------------3----------------
E---------------------------------3-3-3-3-3-3-3-3-3-1-1-1-1-1-1-1-1--
P.M.......................... ............... .............

Guys like to run chicks like to yell you see
E--------------------------------------------------------------------
B--------------------------------------------------------------------
G-5------------------------------------------------------------------
D-5-------------------------------5-----------------3----------------
A-3-3-3-3-3-3-3-3-3-3-3-3-3-3-3-3-5-----------------3----------------
E---------------------------------3-3-3-3-3-3-3-3-3-1-1-1-1-1-1-1-1--
P.M.......................... ............... .............

Guys hate goodbye girls think its therapy
E--------------------------------------------------------------------
B--------------------------------------------------------------------
G-5------------------------------------------------------------------
D-5-------------------------------5-----------------3----------------
A-3-3-3-3-3-3-3-3-3-3-3-3-3-3-3-3-5-----------------3----------------
E---------------------------------3-3-3-3-3-3-3-3-3-1-1-1-1-1-1-1-1--
P.M.......................... ............... .............

PRE-CHORUS

CHORUS

BRIDGE

BRIDGE 2
E---------------------------------------------
B---------------------------------------------
G---------------------------------------------
D---------------------------------------------X2
A-3-3-3-3-3-3-3-3-3-3-3-3-3-------------------
E---------------------------3-3-3-3-1-1-1-1---
P.M..........................................

Hold on-------- Hold On-------
E---------------------------------------------
B---------------------------------------------
G---------------------------------------------
D---------------------------------------------X2
A-3-3-3-3-3-3-3-3-3-3-3-3-3-------------------
E---------------------------3-3-3-3-1-1-1-1---
P.M..........................................

CHORUS X2

Don't Tell me that it's over, im not used to this temptation
E----------------------------------------------------------
B----------------------------------------------------------
G-5--------------------------------------------------------
D-5-Let-Ring-----------------------------------------------
A-3--------------------------------------------------------
E----------------------------------------------------------

Well thats it. This is one of my favorite songs on the album. E-mail me
if you have any questions Punkrckr183@cs.com -Sean-

Copyrights
Author: ?
Composer: ?
Publisher: ?
More details
Language: English

Reactions

CommonCrawl [Bot]

Follow Muzikum